Green Day - Poprocks And Coke Chords & Tabs

 

Poprocks And Coke Chords & Tabs

Green Day Chords & Tabs

Version: 1 Type: Bass Tab 5 ratings
1 star 2 stars 3 stars 4 stars 5 stars
comments

Poprocks And Coke Bass Tab

This is my first bass tab.  The bass player in my band wanted it, so I made it for him.  Have fun!

Intro
G----------------------------------------
D----------------------------------------
A------------------------------------7-7-	
E--5--5-5--5-5-5-5-5-4-5--5-5--5-5-0-----

Verse		     |(Verse 2 starts at D)
G----------------------|-----------------------------------------------
D----------------------|-----------------------------------------------
A----------------------|5--5-5--5-5-5-5-5-----------------------7--7-7-
E--5--5-5--5-5-5-5-5-0-|------------------0-5--5-5--5-5-5-5-7-5--------

G---------------------------------------------------------
D---------------------------------------------------------
A--7-7-7-7-7-0-5--5-5--5-5-5-5--5-------------------------
E---------------------------------0-5--5-5--5-5-5-5-5-4-5-

Chorus
G---------------------------------------------------------------
D----------------------------------7----------------------------
A----------------------5-0-7-7-7-9---5-5-5--5-0-7-7-7-7-7-5-5-5-
E--5-0-2-2-2-0-2-4-4-4------------------------------------------
[ Tab from: http://www.guitartabs.cc/tabs/g/green_day/poprocks_and_coke_btab.html ]
Chorus 2
G---------------------------------------------------------------
D----------------------------------7----------------------------
A----------------------5-0-7-7-7-9---5-5-5--5-0-7-7-7-7-7-5-5-5-
E--5-0-2-2-2-0-2-4-4-4------------------------------------------

G--------------------
D--------------------
A--5-0-7777777777777-
E--------------------

Bridge
G----------------------------------------------------------------------
D----------------------------------------------------------------------
A----------------------------------------------------------------------
E--5--5-5--5-5-5-5-5-4-5--5--5-5--5-5-5-5--5-0-2--2-2--2-2--2-0-0-2-0-5

G---------------------------------------------------------------------
D---------------------------------------------------------------------
A-------------5-4-5--5-5--5-5--5-5-4-4--------------------------------
E--5-5--5-5--5-5-5---------------------5-5--5-5--5-5--5-0-2--2-2--2-2-

G--------------------------------------------------------------------
D--------------------------------------------------------------------
A---------------------------5---4---55555555555555557777777777777777-
E--2-0-0-2-0-5--5-5--5-5--5---5---5----------------------------------

Outro
G----------------------------------------------------------
D----------------------------------------------------------
A----------------7-7---------------7-7---------------7-7---
E--5--5-5--5-5-0-----5--5-5--5-5-0-----5--5-5--5-5-0-----5-

Intro
Verse (2 times)
Chorus
Intro
Verse 2
Chorus
Bridge
Verse 2
Chorus 2
Outro
Comments