Green Day - Peacemaker Chords & Tabs

 

Peacemaker Chords & Tabs

Green Day Chords & Tabs

Version: 4 Type: Tab 0 ratings
1 star 2 stars 3 stars 4 stars 5 stars
comments

Peacemaker Tab

   
NOTE: This is NOT MY TAB. My friend Billy made this but he doesn't have a UG account so 
uploaded it for you guys =].

Intro/Verse  (strum)

     Bm      F#

e:--2----------2---|
b:--3----------2---|
g:--4----------3---|
d:--4----------4---|
a:--2----------4---|
E:--x----------2---|


Chorus (lotsa vibrato here)


e:------------------------------------------------------------------|
b:------------------------------------------------------------------|
g:------------------------------------------------------------------|
d:------------------------------------------------------------------|
a:--------------0-2---5-4-2---2/7~---5-2~-----------2-5-4-2~--------|
E:--2---3-2----------------------------------------3-2--------------|

Break down (distortion)

e:----------------|
b:----------------|
g:--4---3---4-----|
d:--x---x---x-----|
a:--2---1---2-----|
E:----------------|


Solo:
[ Tab from: http://www.guitartabs.cc/tabs/g/green_day/peacemaker_tab_ver_4.html ]
e:-------------------|      e:-----------------|
b:-------------------|      b:-3-2-3-3-2-3-2-0-|
g:-4-2-4-4-2-4-2-----|      g:-----------------|
d:----------------2--| X2   d:-----------------| X2
a:-------------------|      a:-----------------|
E:-------------------|      E:-----------------|

Then:

e:-7-5-7-7-9-10-9-7--7-5-7-7-5-7-5-----|
b:----------------------------------7--|
g:-------------------------------------|
d:-------------------------------------|
a:-------------------------------------|
E:-------------------------------------|

Follow onto:
e:----------------------------------------|
b:---------------------------------3------|
g:--4-2-4-4-2-4-2------2h4-----4~---------|
d:----------------------4-----------------|
a:----------------------------------------|
E:----------------------------------------|

Verse after solo  (up strokes on the off beat)


e:--2--x--2--x--2--|
b:--3--x--3--x--3--|
g:--4--x--4--x--4--|
d:-----------------|
a:-----------------|
E:-----------------|
Comments