Green Day - Paper Lanterns Chords & Tabs

 

Paper Lanterns Chords & Tabs

Green Day Chords & Tabs

Version: 5 Type: Tab 0 ratings
1 star 2 stars 3 stars 4 stars 5 stars
comments

Paper Lanterns Tab

   
PAPER LANTERNS
GREEN DAY
1039/Smoothed Out Slappy Hours

Lyrics by BILLIE JOE
Music by GREEN DAY

All gts. tune down 1 whole step:
D G C F A D (low to high)

Fast Rock = 165 bpm.

 Intro:     Main Riff                Play 4 times
|---------||------------------|------------------||
|---------||------------------|------------------||
|---------||o-------2-2-/-9-9-|---9-9-----------o||
|---------||o-9-----2-2-/-9-9-|---9-9-9-9---9---o||
|---------||--9-----0-0-/-7-7-|---7-7-9-9---9-0--||
|-(6)/7---||--7---0-----------|-0-----7-7---7-0--||
  fdbk.     Gtr. 2 enters 3rd time.

  Verses 1 & 2:
||------------------|-----------------|-----0---0-0-0---|-----------------|
||------------------|-----------------|-----0---0-0-0---|-----------------|
||o-----------------|-----------------|-----1---1-1-1---|-----------------|
||o-9---9---9-9-9-4-|---4-4-4-4-4-4---|-2---2---2-2-2-9-|---9-9---9-9-9---|
||--9---9---9-9-9-4-|---4-4-4-4-4-4---|-2---2---2-2-2-9-|---9-9---9-9-9-0-|
||--7---7---7-7-7-2-|---2-2-2-2-2-2-0-|-0---0---0-0-0-7-|---7-7---7-7-7---|
  


|-----------------|-----------------|-----------------|------------------||
|-----------------|-----------------|-----------------|------------------||
|---------------2-|---2-2-2-2-2-2-2-|-9-9-9---9-9-9---|-----------------o||
|-9-9-9-9-9-9-9-2-|---2-2-2-2-2-2-2-|-9-9-9---9-9-9-9-|---9-9-9-9-9-9---o||
|-9-9-9-9-9-9-9-0-|---0-0-0-0-0-0-0-|-7-7-7---7-7-7-9-|---9-9-9-9-9-9-0--||
|-7-7-7-7-7-7-7---|-----------------|---------------7-|---7-7-7-7-7-7----||


 Chorus:
|-----------------|-----------------|-----------------|-----------------|
|-----------------|-----------------|-----------------|-----------------|
|-----------------|-----------------|-4---4-----4---4-|---4-4-4-4-4-4-4-|
|-2---2---2-2-2-4-|---4-4---4-4-4-4-|-4---4-----4---4-|---4-4-4-4-4-4-4-|
|-2---2---2-2-2-4-|---4-4---4-4-4-4-|-2---2---0-2---2-|---2-2-2-2-2-2-2-|
|-0---0---0-0-0-2-|---2-2---2-2-2-2-|-----------------|-----------------|


[ Tab from: http://www.guitartabs.cc/tabs/g/green_day/paper_lanterns_tab_ver_5.html ]
|-----------------|-----------------|-----------------|-----------------|
|-----------------|-----------------|-----------------|-----------------|
|-----------------|-----------------|-4---4-4-4-4-4---|-----------------|
|-2---2---2-2-2-4-|---4-4---4-4-4-4-|-4---4-4-4-4-4-66|-6-6-6-6-6-6-6-77|
|-2---2---2-2-2-4-|---4-4---4-4-4-4-|-2---2-2-2-2-2-66|-6-6-6-6-6-6-6-77|
|-0---0---0-0-0-2-|---2-2---2-2-2-2-|---------------44|-4-4-4-4-4-4-4-55|



|-----------------|---|
|-----------------|---|
|-----------------|---|
|-7---7-7-7-7-7-xx|-2-|
|-7---7-7-7-7-7-xx|-2-|
|-5---5-5-5-5-5-xx|-0-|

Play Main Riff 2 times.
Play the above Verse & Chorus the same.
Play Main Riff 4 times.

 Guitar Solo (backed by Main Riff 4 times):
|-----------------|-----------7-----|-----------------|--------------10---|
|-----------------|---------7-------|-----------------|-------------------|
|-7---7---------7-|-----7-9-----9-x-|---9-----7---x-97|---7--7-979------79|
|-------7-9-------|---x-------------|-----------------|-9--9--------------|
|-----------------|-----------------|-----------------|-------------------|
|-----------------|-----------------|-----------------|-------------------|
  vib . . vib             1b            1br   vib   p   . ..     1b     h


|-----------------|-----------------|------------------|-----------------|
|-----------------|-----------------|------------------|-----------------|
|-7-7-7-7---------|-----------------|------------------|-----------------|
|-9-9---9-9-7-9-7-|-97--7-7-97--7---|----------9-------|-----------------|
|-----------------|---9-------9---9-|-8-7------------x\|-x\\\x\\\x\\\x\\\|
|-----------------|-----------------|-----10---------x\|-x\\\x\\\x\\\x\\\|
        . . . . .   p       p             vib  vib   steady gliss pick sl.

Play Chorus.
Play Main Riff 3 times.

 Outro:
|-----------------|-----------------|-----|
|-----------------|-x---x-----------|-----|
|-----2-2-2---9-9-|-x-9-x-----------|-----|
|-9---2-2-2---9-9-|-x-9-x-9---------|-9\\\|
|-9---0-0-0---7-7-|-x-7-x-9---------|-9\\\|
|-7---------------|-------7---------|-7\\\|
                          vib


Key/Legend:
	fdbk.	Feedback
	vib	Vibrato
	.	Palm Mute

	p	Pull-Off
	h	Hammer-On

	1b	Full Bend -or- Bend 1 Full Step Up
	1br	Full Bend and Release -or- Bend and Release 1 Full Step Up



Tabbed by Matt McGrath 
Comments