Green Day - Paper Lanterns Chords & Tabs

 

Paper Lanterns Chords & Tabs

Green Day Chords & Tabs

Version: 4 Type: Tab 0 ratings
1 star 2 stars 3 stars 4 stars 5 stars
comments

Paper Lanterns Tab

   
Green Day: Paper Lanterns
Album: 1039 Smoothed Out Slappy Hours
Down tune all guitars  step (Eb G# Db F# Bb Eb)

Intro: (x4)
eb--------------------------------------------------------------------|
Bb--------------------------------------------------------------------|
F#-------------------9--9--------------------------------------------|
Db---9--9---7---7---9---9---7----------------------------------------|
G#---9---9---7---7---9---9---7----------------------------------------|
Eb---9---9---7---7---9---9---7----------------------------------------|

Verse: (x2)
eb--------------------------------------------------------------------|
Bb--------------------------------------------------------------------|
F#---44-4-4-----------------------4-4-4-4-4-4-4-4---2-2-2-2----------|
Db---4-4-4-4---4-4-4-4---2-2-2-2---4-4-4-4-4-4-4-4---2-2-2-2----------|
G#---2-2-2-2---4-4-4-4---2-2-2-2---2-2-2-2-2-2-2-2---0-0-0-0----------|
Eb-------------2-2-2-2---0-0-0-0--------------------------------------|

eb-----------------------|
Bb-----------------------|
F#-------------4-4-4-4---|
Db---2-2-2-2---4-4-4-4---|
G#---2-2-2-2---2-2-2-2---|
Eb---0-0-0-0-------------|
[ Tab from: http://www.guitartabs.cc/tabs/g/green_day/paper_lanterns_tab_ver_4.html ]
Chorus:
eb--------------------------------------------------------------------|
Bb--------------------------------------------------------------------|
F#-----------------------4-4-4-4-4-4-4-4------------------------------|
Db---2-2-2-2---4-4-4-4---4-4-4-4-4-4-4-4---2-2-2-2---4-4-4-4----------|
G#---2-2-2-2---4-4-4-4---2-2-2-2-2-2-2-2---2-2-2-2---4-4-4-4----------|
Eb---0-0-0-0---2-2-2-2---------------------0-0-0-0---2-2-2-2----------|

eb--------------------------------------------------------------------|
Bb--------------------------------------------------------------------|
F#---4-4-4-4-------------2-2-2-2-2------------------------------------|
Db---4-4-4-4---6-6-6-6---2-2-2-2-2---2--------------------------------|
G#---2-2-2-2---6-6-6-6---0-0-0-0-0---2--------------------------------|
Eb-------------4-4-4-4---------------0--------------------------------|

Intro (x2)
Verse 
Chorus
Intro (x2)

Solo:
                  full        full        ~~~~ p         p   full
eb------------------------5-------------------------------------------|
Bb----------------------5---5-----------------------------------------|
F#---5-----5---5---7/(9)------7/(9)---7---5---7^5---5-5-7^5-7/(9)-----|
Db-----xx7---7------------------------------------7-------------------|
G#--------------------------------------------------------------------|
Eb--------------------------------------------------------------------|


                       p      p                    pick scrape
eb--------------------------------------------------------------------|
Bb---5-5-5-5----------------------------------------------------------|
F#---5-5-5-5----------------------------------------------------------|
Db------------7-5-7-5-7^5--5-5-7^5---5---5--------7\-----------------|
G#------------------------7---------7---7---7---5----\----------------|
Eb----------------------------------------------------\---------------|

Chorus
Intro (x4)

This is my VERY own work so don't copy it and tell people it's yours. 
That's lame.
Comments