Green Day - Paper Lanterns Chords & Tabs

 

Paper Lanterns Chords & Tabs

Green Day Chords & Tabs

Version: 1 Type: Tab 1 rating
1 star 2 stars 3 stars 4 stars 5 stars
comments

Paper Lanterns Tab

   
Song: Paper lanterns
Artist: Greenday

Intro
   A5    G5   D5    A5
e|---------------------------------------------------------------|
B|---------------------------------------------------------------|
G|------------7--7-----------------------------------------------|
D|-7--7--5-5--7--7--7-7------------------------------------------|
A|-7--7--5-5--5--5--7-7------------------------------------------|
E|-5--5--3-3--------5-5------------------------------------------|

Verse (x2)
   A5   E5   D5   A5   A5   G5   D5   A5
e|---------------------------------------------------------------|
B|---------------------------------------------------------------|
G|-----------7-------------------7-------------------------------|
D|-7----2----7----7----7----5----7----7--------------------------|
A|-7----2----5----7----7----5----5----7--------------------------|
E|-5----0----5----5----5----3---------5--------------------------|
[ Tab from: http://www.guitartabs.cc/tabs/g/green_day/paper_lanterns_tab.html ]
Chorus
   D5   E5   A5   D5 A5   D5   E5   A5   F#5  G5   D5
e|---------------------------------------------------------------|
B|---------------------------------------------------------------|
G|-7----9----------7------7----9-------------------7-------------|
D|-7----9----7--7--7-7----7----9----7----4----5----7-------------|
A|-5----7----7--7--5-7----5----7----7----4----5----5-------------|
E|-----------5--5--5-5--------------5----2----3------------------|

Bridge (played over verse bassline)
e|---------------------------------------------------------------|
B|---------------------------------------------------------------|
G|-----7----7-9b--9b-7-----------------------7-------7-7-9-9b-7--|
D|-7/9---99------------99\77\6\5\4\3\2\1--/9---9-7-9-------------|
A|---------------------------------------------------------------|
E|---------------------------------------------------------------|


Order

Intro (x2 1 guitar, x2 with band)
Verse 1
Chorus
Intro (x2)
Verse 2
Chorus
Intro (x4)
Bridge
Chorus
Intro (x4)

Comments