Green Day - Only Of You Chords & Tabs

 

Only Of You Chords & Tabs

Green Day Chords & Tabs

Version: 1 Type: Tab 0 ratings
1 star 2 stars 3 stars 4 stars 5 stars
comments

Only Of You Tab

-------------------------------------------------------------------------------
			     ONLY OF YOU (SOLO) - Green Day
-------------------------------------------------------------------------------

By: Gary Brockway

^( ) = bend to note indicated
h = hammer on
p = pull off
P.M.\\\\\ = palm mute

i've looked for this solo on tab sites for about 2 years now and finally i just 
ordered the tab book and learned it myself...so here it is!!!

e|-----10-10----10-10----10-10----10-10----10-10-----------------------------|
B|-----10-10----10-10----10-10----10-10----10-10--13------13------13---------|
G|--12^(14)--12^(14)--12^(14)--12^(14)--12^(14)---12^(14)-12^(14)-12^(14)----|
D|---------------------------------------------------------------------------|
A|---------------------------------------------------------------------------|
E|---------------------------------------------------------------------------|

e|---------------------------------------10--------10--------10--------10----|
B|--13-13------13-13-13-13------------10--------10--------10--------10-------|
G|--10-12^(14)-12-10-12-10----10--12^(14)---12^(14)---12^(14)---12^(14)------|
D|-------------------------12------------------------------------------------|
A|---------------------------------------------------------------------------|
E|---------------------------------------------------------------------------|
[ Tab from: http://www.guitartabs.cc/tabs/g/green_day/only_of_you_tab.html ]
e|---------10---13-10--------------------------------------------------------|
B|------10------------13-10-13^(15)-10---------------------------------------|
G|--12^(14)----------------------------12^(14)-10-10-10h12p10----10----------|
D|------------------------------------------------------------12-------------|
A|---------------------------------------------------------------------------|
E|---------------------------------------------------------------------------|

e|--15p13----13-15^(17)---15^(17)--15^(17)--13-----------10--10---13-12-10---|
B|--------15------------------------------------15--15-----------------------|
G|---------------------------------------------------------------------------|
D|---------------------------------------------------------------------------|
A|---------------------------------------------------------------------------|
E|---------------------------------------------------------------------------|

            					P.M.\\\\\\\\\\\\\\\\\\\\\\\
e|---------------------------10-10----10-10-10-------------------------------|
B|--13-11-10-----------------10-10----10-10-10-------------------------------|
G|-----------12-10-10-10--12^(14)--12^(14)-----------------------------------|
D|----------------------------------------------------------10-12-10-12-12---|
A|----------------------------------------------10-12-12-12------------------|
E|---------------------------------------------------------------------------|

   \\\\\\\\\\\\\\\
e|--------------------10-10----10-10----10-10-10-13p10-----------------------|
B|--------------------10-10----10-10----10-10-10-------13-10-13^(15)---------|
G|-----10----10-10-12^(14)--12^(14)--12^(14)---------------------------------|
D|--12----12-----------------------------------------------------------------|
A|---------------------------------------------------------------------------|
E|---------------------------------------------------------------------------|

===============================================================================
Comments