Green Day - One Of My Lies Chords & Tabs

 

One Of My Lies Chords & Tabs

Green Day Chords & Tabs

Version: 2 Type: Tab

One Of My Lies Tab

   
                   Green Day: Kerplunk
                     One of my lies
                       by:KwattIII
Key:             http://www.Ultimate.com
scrath-x
pull off-p
release-r
Pulm mute-X

Intro:

E|----------------------------------------------------|
B|----------------------------------------------------|
G|-x--6-6-6-6-----------------------------------------| 2x
D|-x--6-6-6-6-6-6-6-6-6-6-6-6-4--3-3--4-4-3-3-4-4-6-6-|
A|-x--4-4-4-4-6-6-6-6-6-6-6-6-4--3-3--4-4-3-3-4-4-6-6-|
E|------------4-4-4-4-4-4-4-4-2--1-1--2-2-1-1-2-2-4-4-|

Verse:

E|-------------------------------------------------------------------------|
B|-------------------------------------------------------------------------|
G|-6-6-6-6-------------------------------------------------6-6-6-6-6-6-6-6-|
D|-6-6-6-6-6-6-6-6-6-6-6-6-8-8-8-8-3-3-3-3-3-3-3-3-4-4-4-4-6-6-6-6-6-6-6-6-|
A|-4-4-4-4-6-6-6-6-6-6-6-6-8-8-8-8-3-3-3-3-3-3-3-3-4-4-4-4-4-4-4-4-4-4-4-4-|
E|---------4-4-4-4-4-4-4-4-6-6-6-6-1-1-1-1-1-1-1-1-2-2-2-2-----------------|

E|---------------------|
B|---------------------|
G|---------------------| 2x
D|-6-6-6-6-6-6-6-6-6-6-|
A|-6-6-6-6-6-6-6-6-6-6-|
E|-4-4-4-4-4-4-4-4-4-4-|


Pre chouros:

E|-------------------------|
B|-------------------------|
G|-------------------------| 4x
D|-4-4-4-4-6-6-6-6-6-6-6-6-|
A|-4-4-4-4-6-6-6-6-6-6-6-6-|
E|-2-2-2-2-4-4-4-4-4-4-4-4-|

Chouros:
  "Cause its just one fo my lies"-on "lies" start playing
E|-------------------------|-------------------------|
B|-------------------------|-------------------------|
G|-------------------------|-6-6---------------------|4x
D|-------------------------|-6-6--8--6-6-6-6-6-6-6-6-|
A|-------------------------|-4-4--8--6-6-6-6-6-6-6-6-|
E|-------------------------|------6--4-4-4-4-4-4-4-4-|

Verse
Pre chouros
Chouros

Brigde:
[ Tab from: http://www.guitartabs.cc/tabs/g/green_day/one_of_my_lies_tab_ver_2.html ]
E|----------------------|
B|----------------------|
G|----------------------| 4x
D|-4-4--4--4-6----------|
A|-4-4--4--4-6----------|
E|-2-2--2--2-4----------|

Drum Fill

Chouros


Outro:Pulm mute-X

E|-------------------------------------------------------------------|
B|---------------------------------------------------------------4---|
G|-6--6-6-6-6-6-------------------------------------------6--6-6--6--|
D|-6--6-6-6-6-6-6-----------------4--3-3--4-4-3-3-4-4-6-6-6--6-6---6-|
A|-4--4-4-4-4-4-6--6-6-6-8-6-8-6--4--3-3--4-4-3-3-4-4-6-6-4--4-4-----|
E|--------------4--4-4-4-4-4-4-4--2--1-1--2-2-1-1-2-2-4-4------------|
      X X X X X    X X X X X X X  X  X X  X X X X X X X x X  X X

E|--------------------------------------------------------------------|
B|--------------------------------------------------4-----------------|
G|-------------------------------------------6--6-6--6-----------5p6r5|
D|-6-----------------4--3-3--4-4-3-3-4-4-6-6-6--6-6---6-6--6-6-6------|
A|-6--6-6-6-8-6-8-6--4--3-3--4-4-3-3-4-4-6-6-4--4-4-----6--6-6-6------|
E|-4--4-4-4-4-4-4-4--2--1-1--2-2-1-1-2-2-4-4------------4--4-4-4------|
      X X X X X X X  X  X X  X X X X X X X X    X X     X  X X X

E|-----------------------------------------------------------------------|
B|-----------------------------------------------------------------------|
G|-------------------------6--6-6-6-6-6----------------------------------|
D|-4--3-3--4-4-3-3-4-4-6-6-6--6-6-6-6-6-6----------------4--3-3--4-4-3-3-|
A|-4--3-3--4-4-3-3-4-4-6-6-4--4-4-4-4-4-6--6-6-6-8-6-8-6-4--3-3--4-4-3-3-|
E|-2--1-1--2-2-1-1-2-2-4-4--------------4--4-4-4-4-4-4-4-2--1-1--2-2-1-1-|
   X  X X  X X X X X X X X    X X X X X X  X X X X X X X 

E|-----------|
B|-----------|
G|---------6-|  THE END
D|-4-4-6-6-6-|
A|-4-4-6-6-4-|
E|-2-2-4-4---|                                                         
                                                                                 
Thats the end of the song,but I'm feeling generous so I'll give you the lyrics as well.