Green Day - One Of My Lies Chords & Tabs

 

One Of My Lies Chords & Tabs

Green Day Chords & Tabs

Version: 1 Type: Bass Tab 0 ratings
1 star 2 stars 3 stars 4 stars 5 stars
comments

One Of My Lies Bass Tab

Here's my corrections for my earlier submission of One Of My Lies. I
dont remember which parts are wrong so I'll do the whole song.All the
notes are written as quarter notes but they're not on the song.

Intro
-------------------------------------------------------------------------
-------------------------------------------------------------------------
----3--3--3--3-----------------------------------------------------------
----------------3--3--3--3--1--1--1--1--3--3--3--3-----------------------
[ Tab from: http://www.guitartabs.cc/tabs/g/green_day/one_of_my_lies_btab.html ]
Verse
-------------------------------------------------------------------------
-------------------------------------------------------------------------
----3--3--3--3--------------------------------------------------3--3--3--
----------------3--3--3--3--5--5--5--5--0--0--0--0--1--1--1--1-----------
When I was young I thought the world circled around me...
-------------------------------------------------------------------------
-------------------------------------------------------------------------
----3--------------------------------------------------------------------
-------3--3--3--3--------------------------------------------------------

Chorus
-------------------------------------------------------------------------
-------------------------------------------------------------------------
----3--3--3--0--0--------------------------------------------------------
-------------------3--3--3-----------------------------------------------
It's just one of my lies...
Bridge
-------------------------------------------------------------------------
-------------------------------------------------------------------------
----------0--0--3--------------------------------------------------------
----3--3-----------------------------------------------------------------
I used to pray at night...
Outro
-------------------------------------------------------------------------
-------------------------------------------------------------------------
-------------------------3-----------------------------------------------
----3--3--3--3--2--2--2--------------------------------------------------

There ya go that should sound right.
--Slob
Tlamb@spokane.net


Comments