Green Day - One For The Razorbacks Chords & Tabs

 

One For The Razorbacks Chords & Tabs

Green Day Chords & Tabs

Version: 1 Type: Tab 0 ratings
1 star 2 stars 3 stars 4 stars 5 stars
comments

One For The Razorbacks Tab

   
Green Day - One For The Razorbacks
Submitted By: Chris
EMail: cwsmith@together.net
Album:Kerplunk (1992 Look Out Records)
Track:2
Guitar:Billie Joe Armstrong
Submitted For Tabbing Contest:12/24/02

Guitar I-Light Distortion, Electric
Guitar II-Medium Distortion, Electric (Country Reverb)

Note:The solo is kind of shaky but the beginning of it
is right and the end is too.  I also included the melody
in case someone wanted to play that instead of the rhythm.

Gtr. I
Intro:
      B     Gb      B     E      B      Gb     B
e-----------------------------------------------------|
b-------7------2------7------0------7------2------7---|
g------8------3------8------1------8------3------8----|
D-----9------4------9------2------9------4------9-----|
A----9------4------9------2------9------4------9------|
E---7------2------7------0------7------2------7-------|

Verse:
      B5    Gb5    B5      E5    B5     Gb5    B5
e------------------------------------------------------|
b------------------------------------------------------|
g---444444--------444444-999999-444444--------444444---|
D---444444-444444-444444-999999-444444-444444-444444---|
A---222222-444444-222222-777777-222222-444444-222222---|
E----------222222----------------------222222----------|

     Gb5
e------------|
b------------|
g------------|
D---444444---|
A---444444---|
E---222222---|
Pm...........|

      B5    Gb5     B5     E5    B5     Gb5     B5
e------------------------------------------------------|
b------------------------------------------------------|
g---444444--------444444-999999-444444--------444444---|
D---444444-444444-444444-999999-444444-444444-444444---|
A---222222-444444-222222-777777-222222-444444-222222---|
E----------222222----------------------222222----------|

Melody (not included in actual song):

e----------------------------------------|
b----------------------------------------|
g---/5p0-5h7----9-9h10p9-7-5-/9~-7~-5~---|
D------------5---------------------------|
A----------------------------------------|
E----------------------------------------|

Chorus:
     Gb5  E5        E5
e-----------------------------|
b-----------------------------|
g--------9999-----------------|
D---4444-9999-9-9-99-9-9-99---|(x4)
A---4444-7777-9-9-99-9-9-99---|
E---2222------7-7-77-7-7-77---|

Verse x1

Chorus x4

Solo:
Gtr. II
[ Tab from: http://www.guitartabs.cc/tabs/g/green_day/one_for_the_razorbacks_tab.html ]
e------------------10-7-------------------------------|
b---7--9-7-9-7-9p7------7-9-----------9---------------|
g----------------------------7-9b-9p7---7h9p7h9p7-----|
D-------------------------------------------------9---|
A-----------------------------------------------------|
E-----------------------------------------------------|

e---------------------------------------------|
b------------------------9p7------------------|
g----------------------------7-7h9------------|
D---7h9p7h9p7-7-------------------9b-444444---|
A---------------99-9-9-9-------------444444---|
E------------------------------------222222---|
Pm.|             .   .               ......

e------------------10-7-------------------------|
b---7--9-7-9-7-9p7------7-9----------10p7-------|
g----------------------------7h9----------9p7---|
D--------------------------------9p7------------|
A-----------------------------------------------|
E-----------------------------------------------|

e------------------------10--9--8-7---|
b---------9p7-------9p7-7---6--5--4---|
g---9---------7h9-9-------------------|
D-----9p7-----------------------------|
A-------------------------------------|
E-------------------------------------|

I'm not too good at tabbing solos and I don't think that
has all the notes but it gives you the idea.

Gtr. I:
Verse x1

Gtr. I
Verse x1

Chorus x4

That's it! Everything but the solo is completely correct
so don't worry!
===========Green DAy - One For The Razorbacks
Submitted By: fruit bowl
EMail: FxLxAxW@hotmail.com


verse

|-------------------------------------------------------------------------|
|-------------------------------------------------------------------------|
|-4-4-4-4-4-4-------------4-4-4-4-4-4-9-9-9-9-9-9-4-4-4-4---------4-4-x-x-|
|-4-4-4-4-4-4-4-4-4-4-4-4-4-4-4-4-4-4-9-9-9-9-9-9-4-4-4-4-4-4-4-4-4-4-x-x-|
|-2-2-2-2-2-2-4-4-4-4-4-4-2-2-2-2-2-2-7-7-7-7-7-7-2-2-2-2-4-4-4-4-2-2-x-x-|
|-------------2-2-2-2-2-2---------------------------------2-2-2-2---------|

chorus

|---------------------------------------|
|---------------------------------------|
|-----------9-9-9-9-9-4-4-4-4-4-4-4-4-4-|
|-4-4-4-4-4-9-9-9-9-9-4-4-4-4-4-4-4-4-4-|
|-4-4-4-4-4-7-7-7-7-7-2-2-2-2-2-2-2-2-2-|
|-2-2-2-2-2-----------------------------|
===========


Green Day - One For The Razorbacks
Submitted By: Jason Lee
EMail: loser_guitarist@hotmail.com
album: Kerplunk

this is for the tabbing contest.

drop-d tuning is the way i play this one

the chords:
   B  F# E1 E2
E:-------------
B:-------------
G:-4--------9--
D:-4--4--2--9--
A:-2--4--2--7--
D:----4--2-----

verse:
B | F# | B | E1 | B | F# | B | F# |
B | F# | B | E1 | B | F# | B | B  |

chorus:
F# | E2 | B | B | (x4)

rhythm during solo is the same as the verse

verse
chorus
verse
chorus
solo
verse
chorus

the end.  simple.  easy.

tabbed out 12/23/02 for the tabbing contest by =jl=
Comments