Green Day - Oh Love Chords & Tabs

 

Oh Love Chords & Tabs

Green Day Chords & Tabs

Version: 10 Type: Tab 0 ratings
1 star 2 stars 3 stars 4 stars 5 stars
comments

Oh Love Tab

Band : Green Day
Song : Oh Love
Album : ĦUno!
Year : 2012

UPDATE N°1 02/08/2012

Really good song from Green Day, this tab is not perfect but it tones right !


Verse
e|-------x--x--x---------x--x--x-----------------|----------------|
B|-------x--x--x---------x--x--x-----------------|----------------|
G|-------x--x--x-6-------x--x--x--6--6--66-6-6-66|-----x--x--x-6--|
D|--6-6--x--x--x-6--6-6--x--x--x--6--6--66-6-6-66|6-6--x--x--x-6--|
A|--6-6--x--x--x-4--6-6--x--x--x--4--4--44-4-4-44|6-6--x--x--x-4--|
E|--4-4--x--x--x----4-4--x--x--x-----------------|4-4--x--x--x----|
                                                  |
                                                  |Stop here for the last time of 
                                                   the verse and go to Pre-Chorus


Pre-Chorus
e|-----------------------------------------------|
B|-----------------------------------------------|
G|--6--6--6-----8-8-8-8-8-8-8-8-8-8-8-8-8-8-8-8--|
D|--6--6--6--6--8-8-8-8-8-8-8-8-8-8-8-8-8-8-8-8--|
A|--4--3--4--6--6-6-6-6-6-6-6-6-6-6-6-6-6-6-6-6--|
E|-----------4-----------------------------------|

Chorus
e|-------------------------------------------------------------------|
B|-------------------------------------------------------------------|
G|----------8-8-8-8---------6-6-6-6---------8-8-8-8---------8-8-8-8--|
D|--6-6-6-6-8-8-8-8-6-6-6-6-6-6-6-6-6-6-6-6-8-8-8-8-6-6-6-6-8-8-8-8--|
A|--6-6-6-6-6-6-6-6-6-6-6-6-4-4-4-4-6-6-6-6-6-6-6-6-6-6-6-6-6-6-6-6--|
E|--4-4-4-4---------4-4-4-4---------4-4-4-4---------4-4-4-4----------|
[ Tab from: http://www.guitartabs.cc/tabs/g/green_day/oh_love_tab_ver_10.html ]
e|--------------------------------------------------|
B|--------------------------------------------------|
G|----------8-8-8-8---------6-6-6-6---------8-8-8-8-|
D|--6-6-6-6-8-8-8-8-6-6-6-6-6-6-6-6-6-6-6-6-8-8-8-8-|
A|--6-6-6-6-6-6-6-6-6-6-6-6-4-4-4-4-6-6-6-6-6-6-6-6-|
E|--4-4-4-4---------4-4-4-4---------4-4-4-4---------|


Break
e|--------------------------------------------------------------------|
B|--------------------------------------------------------------------|
G|-----------------6-6----6-6-----------------6-6---6-6---------------|
D|--6-6-6-6-6-64---6-6----6-6---6-6---6-6-4---6-6---6-6---6-6---6-6-4-|
A|--6-6-6-6-6-64---4-4----4-4---6-6---6-6-4---4-4---4-4---6-6---6-6-4-|
E|--4-4-4-4-4-42----------------4-4---4-4-2---------------4-4---4-4-2-|

e|---------------------------------------------------------|
B|---------------------------------------------------------|
G|--6-6---6-6--------8-10-10--6--5--6-----8-8-8-8-8-8-8-8--|
D|--6-6---6-6---6-6--8-10-10--6--5--6--6--8-8-8-8-8-8-8-8--|
A|--4-4---4-4---6-6--6-8--8---4--3--4--6--6-6-6-6-6-6-6-6--|
E|--------------4-4--------------------4-------------------|


End
e|--------------------------------------------------------------------------|
B|--------------------------------------------------------------------------|
G|-----------8-8-8-8---------8--8-----------8-8-8-8--------8--8-------6-----|
D|--6-6-6-6--8-8-8-8---6--6--8--8--6-6-6-6--8-8-8-8--6--6--8--8--6-6--6--6--|
A|--6-6-6-6--6-6-6-6---6--6--6--6--6-6-6-6--6-6-6-6--6--6--6--6--6-6--4--6--|
E|--4-4-4-4------------4--4--------4-4-4-4-----------4--4--------4-4-----4--|

Play this :

Verse x5
pre Chorus x1
Chorus x1
Verse x5
Chorus x1
Break x1
Chorus x1
Pre-Chorus x1
Verse x3
Pre-Chorus
Chorus x2
End


Hope You'll enjoy :)
Comments