Green Day - No One Knows Chords & Tabs

 

No One Knows Chords & Tabs

Green Day Chords & Tabs

Version: 2 Type: Tab 0 ratings
1 star 2 stars 3 stars 4 stars 5 stars
comments

No One Knows Tab

Song: No One Knows
Artist: Green Day
Album: Kerplunk!
Tabbed by: Jenny
Tuning: 1/2 step down


eb|-----------------------------------------------------------------|
Bb|-----------------------------------------------------------------|
Gb|-----0-----0---------0---2p0-------------------------------------|
Db|---0-----0---0-----0---------0-------4-----4---------2-----2-----|
Ab|-2-----2-------2-1-----1-------1---5-----5---5-----5-----5---5---|
Eb|---------------------------------5-----5-------5-4-----4-------4-|

eb|-----------------------------------|
Bb|-----------------------------------|
Gb|-----------------------------------|
Db|-------2---5p2---------------------|
Ab|-----4---------4h5-4-4-2h4-2-0-----|
Eb|-4h5-----5---------------------0-2-|

eb|-----------------------------------------------------------------|
Bb|-----------------------------------------------------------------|
Gb|-----------------------------------------------------------------|
Db|-----5-----5---5-----7-----7---7-----7-----7-----7-----7---7-----|
Ab|---5-----5-------4/5---4/5---5-----7-----7-----7-----7-----------|
Eb|-3-----3-----3-------------------5-----5-----5-----5-----5---7p5-|
[ Tab from: http://www.guitartabs.cc/tabs/g/green_day/no_one_knows_tab_ver_2.html ]
eb|-----------------------------------------------------------------|
Bb|-----------------------------------------------------------------|
Gb|-----------------------------------------------------------------|
Db|-----5-----5---5-----7-----7---7-----7-----7-----7-----7---7-----|
Ab|---5-----5-------4/5---4/5---5-----7-----7-----7-----7-----------|
Eb|-3-----3-----3-------------------5-----5-----5-----5-----5---7p5-|

eb|---------------------------------|
Bb|---------------------------------|
Gb|---------------------------------|
Db|-----5-----5---5-----7-----7---7-|
Ab|---5-----5-------4/5---4/5---5---|
Eb|-3-----3-----3-------------------|

eb|---------------------------------|
Bb|---------------------------------|
Gb|---------------------------------|
Db|-----5-----5---5-----7-----7---7-|
Ab|---5-----5-------4/5---4/5---5---|
Eb|-3-----3-----3-------------------|

eb|-------------------------------------|
Bb|-------------------------------------|
Gb|-------------------------------------|
Db|-----5-----5---5-----7-----7---7-7~~-|
Ab|---5-----5-------4/5---4/5---5---7~~-|
Eb|-3-----3-----3-------------------5~~-|


I'm 99% sure this is right.  It sounds right to me and it plays well with the song.  Green Day ROCKS!


     Key: 
h -- Hammer On
p -- Pull Off
/ -- Slide
~ -- Hold and let ring
Comments