Green Day - Nice Guys Finish Last Chords & Tabs

 

Nice Guys Finish Last Chords & Tabs

Green Day Chords & Tabs

Version: 1 Type: Tab 3 ratings
1 star 2 stars 3 stars 4 stars 5 stars
comments

Nice Guys Finish Last Tab

   
Tabbed by: Sam Champness
Email:
Song: Nice guys finnish last
Tuning: Eadgbe

Intro
e|--------------------------------------|
B|--------------------------------------|
G|9-9-9---------------9-9-9-------------|
D|9-9-9--7--9-9-9--7--9-9-9--7--9-9-9-9-|
A|7-7-7--7--9-9-9--7--7-7-7--7--9-9-9-9-|
E|-------5--7-7-7--5---------5--7-7-7-7-|

Verse  (after bass has played his bit)
e|-----------------------------------------------|-->
B|-----------------------------------------------|-->
G|9-9-9-9-9-9-9-9-9-9---------------9-9-9-9-9-9--|-->
D|9-9-9-9-9-9-9-9-9-9--9-9-9-9-9-9--9-9-9-9-9-9--|-->
A|7-7-7-7-7-7-7-7-7-7--9-9-9-9-9-9--7-7-7-7-7-7--|-->
E|---------------------7-7-7-7-7-7---------------|-->

-->|e|----------------------|--|--------------------|
-->|B|----------------------|--|--------------------|
-->|G|------------9-9-9-9-9-|--|-----------4-4-4-4--|
-->|D|-7-7-7-7-7--9-9-9-9-9-|--|--4-4-4-4--4-4-4-4--|
-->|A|-7-7-7-7-7--7-7-7-7-7-|--|--4-4-4-4--2-2-2-2--|
-->|E|-5-5-5-5-5------------|X3|--2-2-2-2-----------|
[ Tab from: http://www.guitartabs.cc/tabs/g/green_day/nice_guys_finish_last_tab.html ]
Chorus
e|----------------------------------------------------------------|
B|----------------------------------------------------------------|
G|----------2-2-2-2-----------2-2-2-2-----------2-2-2-2--4-4-4-4-4|
D|-2-2-2-2--2-2-2-2--2-2-2-2--2-2-2-2--2-2-2-2--2-2-2-2--4-4-4-4-4|
A|-2-2-2-2--0-0-0-0--2-2-2-2--0-0-0-0--2-2-2-2--0-0-0-0--2-2-2-2-2|
E|-0-0-0-0-----------0-0-0-0-----------0-0-0-0--------------------|

Bridge
e|-------------------------------------------------------------------|-->
B|-------------------------------------------------------------------|-->
G|9-9-9-9-----------------9-9-9-9--------------------9-9-9-9---------|-->
D|9-9-9-9--7--9-9-9-9--7--9-9-9-9--7--9-9-9-9--7-----9-9-9-9--7-7-7-7|-->
A|7-7-7-7--7--9-9-9-9--7--7-7-7-7--7--9-9-9-9--7-----7-7-7-7--7-7-7-7|-->
E|---------5--7-7-7-7--5-----------5--7-7-7-7--5-X2-----------5-5-5-5|-->

-->|e|----------------------|
-->|B|----------------------|
-->|G|----------------------|
-->|D|4-4-4-4-4--9-9-9-9-9--|
-->|A|4-4-4-4-4--9-9-9-9-9--|
-->|E|2-2-2-2-2--7-7-7-7-7--|

Ending
e|-----------------|
B|-----------------|
G|-----------------|
D|9--9-------------|
A|9--9-------------|
E|7--7-------------|ENJOY PLEASE RATE BACK!!!!!
                    ---------------------------
ORDER
INTRO
VERSE
CHORUS
VERSE
CHORUSx2
BRIDGE
CHORUS
ENDING

| /  slide up
| \  slide down
| h  hammer-on
| p  pull-off
| ~  vibrato
| +  harmonic
| x  Mute note
===============================================================================
Comments