Green Day - Nice Guys Finish Last Chords & Tabs

 

Nice Guys Finish Last Chords & Tabs

Green Day Chords & Tabs

Version: 1 Type: Bass Tab 0 ratings
1 star 2 stars 3 stars 4 stars 5 stars
comments

Nice Guys Finish Last Bass Tab

Song: Nice Guys Finish Last
Artist: Green Day
Album: Nimrod (Track 1)
Tabbed by:  Scott Kaufman--Mrgsprsnts@aol.com
Corrections Made by: James ThE GrEaT (JPG228@Hotmail.com)
 
I have quit a time figuring this song out. Well, Enjoy
 
 Key----------- []= Palm Mute  
Pre-Intro             Intro
G|-------------|-----------------------------------------------------------
D|-------------|--------------------679------------------------------------
A|-------------|---77777--------77-----------------------77777-------789789
E|[5555555555]-|55--------55555--------55555-77777-55555-------55555-------
 
 Bridge     HERE, THE NOTES AREE PLAYED IN SETS OF THREE
G|-------------------------------------------------------------------------
D|-------------------------------------------------------------------------
A|--7-789-789-789-789-789-789-789-789-789-789-789---------------789-789-789
E|55---------------------------------------------789-789-789-789-----------
 
 Verse 1
G|---------------------------------|
D|---------------------------------|
A|-77-7777-77-7777-----------------|
E|-----------------55-5555-55-5555-|
 
 Verse 2
G|-------------------------------------------------|
D|-------------------------------------------------|
A|-77-7777-77-7777-----------------22-2222-22-2222-|
E|-----------------22-2222-22-2222-----------------|
 
 Chorus
G|------------------|
D|------------------|
A|-77-7777----------|
E|---------55555555-|
 
 BASS SOLO >>>>I AM NOT TOO SURE OF THIS BUT IT IS SOMETHING LIKE THIS!
  Email me if you get it!
G|-----------------|
D|-----------------|
A|--------77-99-8-7|
E|777-999----------|
 
 Ending
G|-----------------|
D|-----------------|
A|----77897789---7-|
E|-55---------55---|
 
 Order of the whole song!!!!!!1
 
Pre intro     x1
Intro         x1
Bridge        x1
Verse 1       x3
Verse 2       x1
Chorus        x3
Bass Solo     x1
Bridge        x1
Verse 1       x3
Verse 2       x1
Chorus        x3
Bass Solo     x1
Chorus        x3
Bass Solo     x1
Intro         x1 Mike Dirnt changes the end of the intro just a tad
Chorus        x3
Bass Solo     x1
Chorus        x3
Bass Solo     x1
Ending        x1
 
There You Go!!!!!!!! 
 Questions, comments, email me, i also have the Grouch,
  All The Time, And a Few others by Green Day!!

[ Tab from: http://www.guitartabs.cc/tabs/g/green_day/nice_guys_finish_last_btab.html ]
Comments