Green Day - Murder City Chords & Tabs

 

Murder City Chords & Tabs

Green Day Chords & Tabs

Version: 9 Type: Bass Tab 0 ratings
1 star 2 stars 3 stars 4 stars 5 stars
comments

Murder City Bass Tab

   
Song Kicks In At 0:06 after drum roll

Intro/Chorus

G/------------------------------------------------------------------|
D/------------------------------------------------------------------|
A/2222222222222222-6666666666666666----------------7777777777777777-|
E/---------------------------------4444444444444444-----------------|


G/------------------------------------------------------------------|
D/------------------------------------------------------------------|
A/2222222222222222-6666666666666666----------------7777777777777777-|
E/---------------------------------4444444444444444-----------------|

Verse

G/------------------------------------------------------------------------|
D/------------------------------------------------------------------------|
A/2-22222222-6-66666666---------------------7-7777777777-------------9-99-|
E/----------------------4-444444444444444444------------6-66666666666-----|


G/----------|
D/----------|
A/-999999999
E/----------


G/------------------------------------------------------------------------|
D/------------------------------------------------------------------------|
A/2-22222222-6-66666666---------------------7-7777777777-------------9-99-|
E/----------------------4-444444444444444444------------6-66666666666-----|


G/----------|
D/----------|
A/-999999999
E/----------


Pre-Chorus

G/---------------------------------------------|
D/---------------------------------------------|
A/7-7777777777777-7(let Ring)------------------|
E/---------------------------------------------|

Intro/Chorus

G/------------------------------------------------------------------|
D/------------------------------------------------------------------|
A/2222222222222222-6666666666666666----------------7777777777777777-|
E/---------------------------------4444444444444444-----------------|


G/------------------------------------------------------------------|
D/------------------------------------------------------------------|
A/2222222222222222-6666666666666666----------------7777777777777777-|
E/---------------------------------4444444444444444-----------------|

Solo

G/------------------------------------------------------------------|
D/------------------------------------------------------------------|
A/2222222222222222-6666666666666666----------------7777777777777777-|
E/---------------------------------4444444444444444-----------------|

[ Tab from: http://www.guitartabs.cc/tabs/g/green_day/murder_city_btab_ver_9.html ]
G/------------------------------------------------------------------|
D/------------------------------------------------------------------|
A/2222222222222222-6666666666666666----------------7777777777777777-|
E/---------------------------------4444444444444444-----------------|


Verse 2
Verse

G/------------------------------------------------------------------------|
D/------------------------------------------------------------------------|
A/2-22222222-6-66666666---------------------7-7777777777-------------9-99-|
E/----------------------4-444444444444444444------------6-66666666666-----|


G/----------|
D/----------|
A/-999999999
E/----------


G/------------------------------------------------------------------------|
D/------------------------------------------------------------------------|
A/2-22222222-6-66666666---------------------7-7777777777-------------9-99-|
E/----------------------4-444444444444444444------------6-66666666666-----|


G/----------|
D/----------|
A/-999999999
E/----------


Pre-Chorus

G/---------------------------------------------|
D/---------------------------------------------|
A/7-7777777777777-7(let Ring)------------------|
E/---------------------------------------------|

Intro/Chorus

G/------------------------------------------------------------------|
D/------------------------------------------------------------------|
A/2222222222222222-6666666666666666----------------7777777777777777-|
E/---------------------------------4444444444444444-----------------|


G/------------------------------------------------------------------|
D/------------------------------------------------------------------|
A/2222222222222222-6666666666666666----------------7777777777777777-|
E/---------------------------------4444444444444444-----------------|

Chorus Repeats With Solo

G/------------------------------------------------------------------|
D/------------------------------------------------------------------|
A/2222222222222222-6666666666666666----------------7777777777777777-|
E/---------------------------------4444444444444444-----------------|


G/------------------------------------------------------------------|
D/------------------------------------------------------------------|
A/2222222222222222-6666666666666666----------------7777777777777777-|
E/---------------------------------4444444444444444-----------------|

Ending

G/---------------------------------------------------------------------|
D/---------------------------------------------------------------------|
A/-7-(let Ring)--------------------------------------------------------|
E/---------------------------------------------------------------------|
Comments