Green Day - Minority Chords & Tabs

 

Minority Chords & Tabs

Green Day Chords & Tabs

Version: 4 Type: Tab 0 ratings
1 star 2 stars 3 stars 4 stars 5 stars
comments

Minority Tab

   
Green Day. minority.
 Tabbed by justin bunz, live2sk84ever_14@hotmail.com.
  
*-triplets
h-hammer on
:-hold

standard tuning

Intro (0:00)
Gtr.1(acous) 
  C          G          Fmaj7      C
   * * *      * * *      * * *      * **
-------------------------------0----------------------
---------1----------3------1-----1-------1------------
-----0-----0---------0---2---2------0----0-0----------
-------2--------0--------3---3------0h2---------------
---3--------------2--------------------3--------------
--------------3---------------------------------------

Intro continued
            G           Fmaj7  C     
* * *       * * *    
------------------------------------------------------
------1-0---------3-----------------------------------
------0-0-----0-----0---2--0--------------------------
0h2---------------------3--2-0-2----------------------
----3-----------2--------------3----------------------
------------3-----------------------------------------

Intro Chorus(0:07) (play x4)
C5           F5            G5           F5
* * *        * * *         * * *        * * *
------------------------------------------------------
------------------------------------------------------
5-5-5--5----------------------------------------------
5-5-5--5-----3-3-3--3------5-5-5--5-----3-3-3--3------
3-3-3--3-----3-3-3--3------5-5-5--5-----3-3-3--3------
---------0---1-1-1--1--0---3-3-3--3--0--1-1-1--1--0---

verse(0:21,1:04,1:55)
[ Tab from: http://www.guitartabs.cc/tabs/g/green_day/minority_tab_ver_4.html ]
C, G, F, Fmaj7, C, G, F, G, C, G, F, Fmaj7, C, F, G, C

Chorus(0:35,1:18,2:09)(play intro Chorus)

Bridge(0:49,1:32)
A5
* * *  * * *           *  *  *
------------------------------------------------------
------------------9----10-10-10--10-------------------
------------------9----10-10-10--10-------------------
7-7-7--7-7-7--7---9----10-10-10--10----10-10-10-------
7-7-7--7-7-7--7---7--8--8--8--8--8-----10-10-10-------
5-5-5--5-5-5--5-0--------------------0--8--8--8--0----

1st ending
* * *  * * *         * * *       * * *      
------------------------------------------------------
------------------------------------------------------
-----------------9:-----------------------------------
7-7-7--7-7-7--7--9:--3-3-3--3----5-5-5--5-------------
7-7-7--7-7-7--7--7:--3-3-3--3----5-5-5--5-------------
5-5-5--5-5-5--5------1-1-1--1-3--3-3-3--3--0----------

2nd ending
* * *  * * *                 * * *       * * *
------------------------------------------------------
------------------------------------------------------
------------------------------------------------------
7-7-7--7-7-7--7---3-----5-5--x-x-x--5-5--x-x-x--------
7-7-7--7-7-7--7---3-----5-5--x-x-x--5-5--x-x-x--------
5-5-5--5-5-5--5-0-1-0---3-3--x-x-x--3-3--x-x-x--------

Interlude(1:48)

C, G, F, Fmaj7, C, G, F, G

Outro(2:23)

Play the intro chorus 3x then the intro 1x 
:: Ultimate Guitar Archive :: 
http://www.ultimate-guitar.com 



Comments