Green Day - Minority Chords & Tabs

 

Minority Chords & Tabs

Green Day Chords & Tabs

Version: 2 Type: Tab 4 ratings
1 star 2 stars 3 stars 4 stars 5 stars
comments

Minority Tab

   
Green Day - Minority
Standard Tuning

Dnnythms - http://www.geocities.com/allkimsmith

Intro/Ending:  (acoustic guitar)
e |--------------------0--------------------------------------------|
b |----------3-----1-----1-------1-----------1--0-------0-----------|
g |----------0-0-----0-------------0---------0--0---------0---------|
d |--0---0-------3---------0h2---------0h2----------0---------------|
a |----2-----------------------3-----------3------2-----------------|
e |--------3------------------------------------------3-------------|
        G             F                      C
[ Tab from: http://www.guitartabs.cc/tabs/g/green_day/minority_tab_ver_2.html ]
e |-----------0-----------------------------------------------------|
b |-----------1-----------------------------------------------------|
g |--0--0-----0-----------------------------------------------------|
d |--3--2-0---2-----------------------------------------------------|
a |-----------3-----------------------------------------------------|
e |-----------------------------------------------------------------|
              C
Chorus:
e |-----------------------------------------------------------------|
b |-----------------------------------------------------------------|
g |--5-5------------------------------------------------------------|
d |--x-x--3-3--5-5--3-3---------------------------------------------|
a |--3-3--3-3--5-5--3-3---------------------------------------------|
e |-------1-1--3-3--1-1---------------------------------------------|

Verses II:
e |--5-5-5-5-5-5-5---4---5-5-5-5----------------5-5-5-5-5-5-5-------|
b |--5-5-5-5-5-5-5---5---6-6-6-6---5-5-5-5------5-5-5-5-5-5-5-------|
g |--5-5-5-5-5-5-5---4---5-5-5-5---5-5-5-5------5-5-5-5-5-5-5-------|
d |--7-7-7-7-7-7-7---6---7-7-7-7---5-5-5-5------7-7-7-7-7-7-7-------|
a |--7-7-7-7-7-7-7---7---8-8-8-8---3-3-3-3------7-7-7-7-7-7-7-------|
e |--5-5-5-5-5-5-5------------------------------5-5-5-5-5-5-5-------|
    (             first half              )    

e |----1-1-1-1---3-3-3-3-----------------------5---1---3------------|
b |----1-1-1-1---3-3-3-3-----------------------5---1---3------------|
g |-1--2-2-2-2---4-4-4-4-----------------------5---2---4-------4----|
d |-2--3-3-3-3---5-5-5-5- repeat first half ---7---3---5-------4----|
a |-2--3-3-3-3---5-5-5-5- of Verse II, then ---7---3---5-------2----|
e |-0--1-1-1-1---3-3-3-3- play these chords ---5---1---3------------|
                                               Am  F   G G G


Comments