Green Day - Minority (perfect) Chords & Tabs

 

Minority (perfect) Chords & Tabs

Green Day Chords & Tabs

Version: 1 Type: Bass Tab 2 ratings
1 star 2 stars 3 stars 4 stars 5 stars
comments

Minority (perfect) Bass Tab

Title: "Minority"
Artist: Green Day
Album: Warning

INTRO (Enter right after the guitar introduces the melody)
(============================================4x's================================================)
G|-----------------------------------------------------------------------------------------------|
D|-----------------------------------------------------------------------------------------------|
A|--3-3-3-3--------------------------------------------------------------------------------------|
E|----------0/1-1-1-1--0/3-3-3-3--0/1-1-1-1--0---------------------------------------------------|

VERSE I
G|-----------------------------------------------------------------------------------------------|
D|---2---0-3-2-0-----------2---0-----------------------------------------------------------------|
A|-3-------------3-3-2---3-----------------2-----------------------------------------------------|
E|-----3---------------3-----3---1-0-1-3-3---3---------------------------------------------------|

G|-----------------------------------------------------------------------------------------------|
D|---2---0-3-2-0-----------2-3-2-----------------------------------------------------------------|
A|-3-------------3-3-2---3---------2-3-----------------------------------------------------------|
E|-----3---------------3---------3---------------------------------------------------------------|

CHORUS I
(============================================4x's================================================)
G|-----------------------------------------------------------------------------------------------|
D|-----------------------------------------------------------------------------------------------|
A|--3-3-3-3--------------------------------------------------------------------------------------|
E|----------0/1-1-1-1--0/3-3-3-3--0/1-1-1-1--0---------------------------------------------------|

BRIDGE I
G|-----------------------------------------------------------------------------------------------|
D|-----------------------------------------------------------------------------------------------|
A|-------------------7--8-8-8-8------------------------------------------------------------------|
E|----5-5-5-5-5-5-5-------------8-8-8-8----------------------------------------------------------|

G|-----------------------------------------------------------------------------------------------|
D|-----------------------------------------------------------------------------------------------|
A|-----------------------------------------------------------------------------------------------|
E|----5-5-5-5-5-5-5--0--1-1-1-1--3-3-3-3---------------------------------------------------------|

G|-----------------------------------------------------------------------------------------------|
D|-----------------------------------------------------------------------------------------------|
A|-------------------7--8-8-8-8------------------------------------------------------------------|
E|----5-5-5-5-5-5-5-------------8-8-8-8----------------------------------------------------------|

G|-----------------------------------------------------------------------------------------------|
D|-----------------------------------------------------------------------------------------------|
A|--------------------------------------------2--------------------------------------------------|
E|----5-5-5-5-5-5-5--1--3-3---3-3---3-3-3-3-3----------------------------------------------------|

G|-----------------------------------------------------------------------------------------------|
D|---2---0-3-2-0-----------2---0-----------------------------------------------------------------|
A|-3-------------3-3-2---3-----------------2-----------------------------------------------------|
E|-----3---------------3-----3---1-0-1-3-3---3---------------------------------------------------|

G|-----------------------------------------------------------------------------------------------|
D|---2---0-3-2-0-----------2-3-2-----------------------------------------------------------------|
A|-3-------------3-3-2---3---------2-3-----------------------------------------------------------|
E|-----3---------------3---------3---------------------------------------------------------------|
[ Tab from: http://www.guitartabs.cc/tabs/g/green_day/minority_perfect_btab.html ]
CHORUS II
(============================================4x's================================================)
G|-----------------------------------------------------------------------------------------------|
D|-----------------------------------------------------------------------------------------------|
A|--3-3-3-3--------------------------------------------------------------------------------------|
E|----------0/1-1-1-1--0/3-3-3-3--0/1-1-1-1--0---------------------------------------------------|

BRIDGE II
G|-----------------------------------------------------------------------------------------------|
D|-----------------------------------------------------------------------------------------------|
A|-------------------7--8-8-8-8------------------------------------------------------------------|
E|----5-5-5-5-5-5-5-------------8-8-8-8----------------------------------------------------------|

G|-----------------------------------------------------------------------------------------------|
D|-----------------------------------------------------------------------------------------------|
A|-----------------------------------------------------------------------------------------------|
E|----5-5-5-5-5-5-5--0--1-1-1-1--3-3-3-3---------------------------------------------------------|

G|-----------------------------------------------------------------------------------------------|
D|-----------------------------------------------------------------------------------------------|
A|-------------------7--8-8-8-8------------------------------------------------------------------|
E|----5-5-5-5-5-5-5-------------8-8-8-8----------------------------------------------------------|

G|-----------------------------------------------------------------------------------------------|
D|-----------------------------------------------------------------------------------------------|
A|--------------------------------------------2--------------------------------------------------|
E|----5-5-5-5-5-5-5--1--3-3---3-3---3-3-3-3-3----------------------------------------------------|

G|-----------------------------------------------------------------------------------------------|
D|---2---0-3-2-0-----------2---0-----------------------------------------------------------------|
A|-3-------------3-3-2---3-----------------2-----------------------------------------------------|
E|-----3---------------3-----3---1-0-1-3-3---3---------------------------------------------------|

G|-----------------------------------------------------------------------------------------------|
D|---2---0-3-2-0-----------2-3-2-----------------------------------------------------------------|
A|-3-------------3-3-2---3---------2-3-----------------------------------------------------------|
E|-----3---------------3---------3---------------------------------------------------------------|

CHORUS III
(============================================4x's================================================)
G|-----------------------------------------------------------------------------------------------|
D|-----------------------------------------------------------------------------------------------|
A|--3-3-3-3--------------------------------------------------------------------------------------|
E|----------0/1-1-1-1--0/3-3-3-3--0/1-1-1-1--0---------------------------------------------------|

OUTRO 
(============================================3x's================================================)
G|-----------------------------------------------------------------------------------------------|
D|-----------------------------------------------------------------------------------------------|
A|--3-3-3-3--------------------------------------------------------------------------------------|
E|----------0/1-1-1-1--0/3-3-3-3--0/1-1-1-1--0---------------------------------------------------|

G|-----------------------------------------------------------------------------------------------|
D|------2-3-2------------------------------------------------------------------------------------|
A|---3---------2-3--2-2-2-3----------------------------------------------------------------------|
E|-----------3-----------------------------------------------------------------------------------|

GREEN DAY ROCKS!!!!!!!!		
Comments