Green Day - Minority Chords & Tabs

 

Minority Chords & Tabs

Green Day Chords & Tabs

Version: 5 Type: Bass Tab 0 ratings
1 star 2 stars 3 stars 4 stars 5 stars
comments

Minority Bass Tab

Green Day - Minority
Bass Tab
Standard Tuning (EADG)

Chorus (I wanna be the minority...)
G|-------------------------------------|
D|-------------------------------------|
A|-3-3-3-3-----------------------------|
E|----------1-1-1-1--3-3-3-3--1-1-1-1--|

Verse Version One (I pledge allegiance...)
G|--------------------------------------|
D|------2-------------3-3-2-0-----------|
A|--3-3---3------2-------------3-3-2-0--|
E|-----------3-3---3--------------------|

G|--------------------------------------|
D|------2-------------------------------|
A|--3-3---3------2-----------------2----|
E|-----------3-3---3--1-1-0-1--3-3---3--|

G|--------------------------------------|
D|------2-------------3-3-2-0-----------|
A|--3-3---3------2-------------3-3-2-0--|
E|-----------3-3---3--------------------|

G|---------------------------------|
D|------2----3-3-2-0---------------|
A|--3-3---3---------------2---3-2--|
E|--------------------3-3---3------|

Verse Version Two (Part One)
G|--------------------------------------|
D|------2-------------3-3-2-0-----------|
A|--3-3---3------2-------------3-3-2-0--|
E|-----------3-3---3--------------------|

G|--------------------------------------|
D|------2-------------------------------|
A|--3-3---3------2-----------------2----|
E|-----------3-3---3--1-1-0-1--3-3---3--|
[ Tab from: http://www.guitartabs.cc/tabs/g/green_day/minority_btab_ver_5.html ]
Verse Version Two
G|--------------------------------------|
D|------2-------------3-3-2-0-----------|
A|--3-3---3------2-------------3-3-2-0--|
E|-----------3-3---3--------------------|

G|---------------------------------|
D|------2--------2-----------------|
A|--3-3---3--------0------2---3-2--|
E|-----------1-1------3-3---3------|

Interlude/Bridge (Marching out of time...)
G|-------------------------------------|
D|-------------------------------------|
A|----------------7--8-8-8-8-----------|
E|--5-5-5-5-5-5-5-------------8-8-8-8--|

G|-------------------------------------|
D|-------------------------------------|
A|----------------7--------------------|
E|--5-5-5-5-5-5-5----1-1-1-1--3-3-3-3--|

G|-------------------------------------|
D|-------------------------------------|
A|----------------7--8-8-8-8-----------|
E|--5-5-5-5-5-5-5-------------8-8-8-8--|

G|-------------------------------|
D|-------------------------------|
A|-------------------------------|
E|--5-5-5-5-5-5-5--1--3-3-x-x-x--|

G|------------------------------|
D|------------------------------|
A|---------------------------2--|
E|--3-3-x-x-x--3-3--3-3-3-3-----|

 Song Order:
Rest(Guitar Intro)
Chorus x4
Verse Version One x1
Chorus x8
Interlude/Bridge x1
Verse Version Two Part One and Two x1
Chorus x4
Interlude/Bridge x1
Verse Version Two Part One x2
Verse Version Two Part Two x1
Chorus x8
Rest(Guitar Exit)
Comments