Green Day - Minority Chords & Tabs

 

Minority Chords & Tabs

Green Day Chords & Tabs

Version: 2 Type: Bass Tab 1 rating
1 star 2 stars 3 stars 4 stars 5 stars
comments

Minority Bass Tab

Song: Minority
Band: Green Day

Chorus:
-------------------------
-------------------------
-3--3--------------------
-------1--1--3--3--1--1--

Verse:
----5--------------------------5--------------
----------------------------------------------
-3--------3-----3--3--2-0---3--------3-----3--
-------3-----1------------3-------1-----3-----
       ________________
      |1.      |2.
---------------|----5--
---------------|-------
----3-----3----|-3-----
-1-----3-------|-------

Interlude:
[ Tab from: http://www.guitartabs.cc/tabs/g/green_day/minority_btab_ver_2.html ]
                                  ______________
                                 |1.
---------------------------------|--------------
---------------------------------|--------------
----------7-8--8-----------------|--------------
-5--5--5----------8--8--5--5--5--|0-1--1--3--3--

 _________________________
|2.
|-------------------------
|-------------------------
|-------------------------
|1--1--3-3--3-3--3--3--3--

Intro (rest)
Chorus
Verse
Chorus
Interlude
Verse
Chorus
Interlude
Verse
Chorus
Outro (rest)
Comments