Green Day - Maria Chords & Tabs

 

Maria Chords & Tabs

Green Day Chords & Tabs

Version: 7 Type: Tab 0 ratings
1 star 2 stars 3 stars 4 stars 5 stars
comments

Maria Tab

   
Tabbed by:Sam Champness
Song:Maria
Band:Green Day
Tuning:Eadgbe

Verse                                                 (play for longer) 
e|---------------|--|-----------------------------------------------------|
B|---------------|--|-----------------------------------------------------|
G|777------------|--|-------999999999----777----------------999999999-----|
D|777-777--------|--|7--6---999999999----777-777----7--6----999999999-----|
A|555-777--------|--|7-\6---777777777----555-777----7-\6----777777777-----|
E|----555--X4----|--|5-\4-0-----------X4-----555-X2-5-\4-0------------X4--|
                                
Chorus
e|-------------------------------------------|--|------999--111111--999-----|
B|-------------------------------------------|--|------999--111111--999-----|
G|7777-------7777-------7777--------9999999--|--|-9999-777--9-9-9---777--X6-|
D|7777-7777--7777-7777--7777-7777---9999999--|--|-9999----------------------|
A|5555-7777--5555-7777--5555-7777---7777777--|--|-7777----------------------|
E|-----5555-------5555-------5555------------|--|---------------------------|
[ Tab from: http://www.guitartabs.cc/tabs/g/green_day/maria_tab_ver_7.html ]
Solo
e|--------------------------------------------------------------------|
B|7h8-77-5h6-55h65-7h8-77-5h6-55h65-7h8-77-5h6-55h65-9-10-12-10-9-X2--|
G|--------------------------------------------------------------------|
D|--------------------------------------------------------------------|
A|--------------------------------------------------------------------|
E|--------------------------------------------------------------------|Then

Ending of solo
e|-----------|--|---------------|
B|-----------|--|---------------|
G|777--------|--|-777-----------|
D|777-7-77---|--|-777-7-77------|
A|555-7-77---|--|-555-7-77------|
E|----5-55---|--|-----5-55------|

Ending
e|-----999--111111--999--|--|------------|
B|999--999--111111--999--|--|------------|
G|999--777--9-9-9---777--|--|---777------|
D|777--------------------|--|---777--777-|
A|-----------------------|--|---555--777-|
E|-----------------------|--|--------555-|  PLAY AS NEEDED

ENJOY!!!!. PLEASE RATE BACK FOR THE SOLO DONT KNOW IF ITS RIGHT

ORDER
VERSE(x2)
CHORUS
SOLO
VERSE
CHORUS
ENDING

| /  slide up
| \  slide down
| h  hammer-on
| p  pull-off
| ~  vibrato
| +  harmonic
| x  Mute note
=============================================================================
Comments