Green Day - Maria Chords & Tabs

 

Maria Chords & Tabs

Green Day Chords & Tabs

Version: 2 Type: Tab 0 ratings
1 star 2 stars 3 stars 4 stars 5 stars
comments

Maria Tab

                  MARIA by GREEN DAY
                 Transcribed by d.beauchamp Mar 29/02
                (personal interpretation only)

     Verse                          Pre-Chorus x4
e|---------------------------------------------------|
B|---------------------------------------------------|
G|--7--7--7---------------------------------9--------|
D|--7--7--7--7--x 3 -------------7\--6------9--------|
A|--5--5--5--7-------------------7\--6p--0--7--------|
E|-----------5-------------------5\--4p--0-----------|

    
     Chorus                      Bridge x6
e|---------------------------------------------------|
B|-------------------------------10--12--10----------|
G|--7----------9--------------9---9--11---9-----9----|
D|--7--7--x 3--9--------------9---7---9---7-----9----|
A|--5--7-------7--------------7-----------------7----|
E|-----5---------------------------------------------|
[ Tab from: http://www.guitartabs.cc/tabs/g/green_day/maria_tab_ver_2.html ]
                              x 3        First ending
e|---------------------------------------5-5-7-5-4---|
B|--7-8-777-5-6-555-5-6--5--5-6------ 7-7------------|
G|---------------------------------------------------|
D|---------------------------------------------------|
A|---------------------------------------------------|
E|---------------------------------------------------|

    2nd Ending
e|-------5-5-7-5-4-5---------------------------------|
B|----7-7--------------------------------------------|
G|---------------------------------------------------|
D|---------------------------------------------------|
A|---------------------------------------------------|
E|---------------------------------------------------|

   End
e|---------------------------------------------------|
B|-----10--12--10-----10--12-------------------------|
G|--9---9--11---9--9---9--11---7--7--7---------------|
D|--9---7---9---7--9---7---9---7--7--7--7------------|
A|--7--------------7-----------5--5--5--7------------|
E|--------------------------------------5------------|


  Just Follow These Chords and you shouldn't have trouble
figuring out the some of the strumming patterns.
  any comments danayakae@hotmail.com
GREEN DAY RULES
Comments