Green Day - Maria Chords & Tabs

 

Maria Chords & Tabs

Green Day Chords & Tabs

Version: 3 Type: Bass Tab 0 ratings
1 star 2 stars 3 stars 4 stars 5 stars
comments

Maria Bass Tab

Green Day -> Maria


Intro->  Repeat 4x
"She smashed the radio with the board of education....."
G:------------------------------------------------------
D:---7(14x)---------------------------------------------
A:55----------------------------------------------------
E:------------------------------------------------------
 
Repeat 4x
"Turn up the flame, step on the gas....."
G:------------------------------------------------------
D:------------------------------------------------------
A:-----7(6x)--------------------------------------------
E:-5-4--------------------------------------------------
[ Tab from: http://www.guitartabs.cc/tabs/g/green_day/maria_btab_ver_3.html ]
Repeat 2x
"She is the first voice of the last ones in the line....."
G:------------------------------------------------------
D:---7(14x)---------------------------------------------
A:55----------------------------------------------------
E:------------------------------------------------------

Repeat 4x
"Bring in the head of the government....."
G:------------------------------------------------------
D:------------------------------------------------------
A:-----7(6x)--------------------------------------------
E:-5-4--------------------------------------------------


"Maria,Maria,Maria,Where did you go?...."
G:-----------------------------------------------------------
D:-----------------------------------------------------------
A:555-4----------555-4---------------555-4----------7(8x)-5-7
E:-----7-55555-7-------7-55555-4-2-0-------7-55555-7---------
 

"She questions what your offering.......
G:-----------------------------------------------------------
D:-9-9-7-6---6--9-9-7-6---6--9-9-7-6---6--9-14---------------
A:7-7------9---7-7------9---7-7------9---7-7-----------------
E:-----------------------------------------------------------


Figured out by Luiz Manzano (Brasil)
Comments