Green Day - Maria Chords & Tabs

 

Maria Chords & Tabs

Green Day Chords & Tabs

Version: 2 Type: Bass Tab 0 ratings
1 star 2 stars 3 stars 4 stars 5 stars
comments

Maria Bass Tab

   
Tabbed by: fenderbass1
Standard tuning (E,A,D,G)

Intro:
G------------------------------------
D------------------------------------		x2
A----555-0000000000000000000000000000
E------------------------------------

Verse:
G------------------------------------
D------------------------------------		x2
A----555-0000000000000000000000000000
E------------------------------------

Bridge:
G--------------------
D----------2222222222		x4
A--------------------
E----5-4-2-----------

Verse:
G------------------------------------
D------------------------------------		x2
A----555-0000000000000000000000000000
E------------------------------------

Bridge:
G--------------------
D----------2222222222		x4
A--------------------
E----5-4-2-----------

Chorus:
G---------------------------------------------------------------------
D---------------------------------------------------------------------
A---5-5-5-5-0-00-000-5-5-5-5-0-00-000-5-5-5-5-0-00-000-7-7-7-77-77-777
E---------------------------------------------------------------------

Chorus outro:
G-------------------------------------------------------------------
D------9-7-6-----------9-7-6-----------9-7-6-----------9-7-6--------
A----7-------9-7-7-9-7-------9-7-7-9-7-------9-7-7-9-7-------9-7-7-7
E-------------------------------------------------------------------
[ Tab from: http://www.guitartabs.cc/tabs/g/green_day/maria_btab_ver_2.html ]
Chorus:	x2
G----------------------------------------------------------------------
D----------------------------------------------------------------------
A----5-5-5-5-0-00-000-5-5-5-5-0-00-000-5-5-5-5-0-00-000-7-7-7-77-77-777
E----------------------------------------------------------------------

Verse:
G------------------------------------
D------------------------------------		x2
A----555-0000000000000000000000000000
E------------------------------------

Bridge:
G--------------------
D----------2222222222		x4
A--------------------
E----5-4-2-----------

Chorus: x2
G---------------------------------------------------------------------
D---------------------------------------------------------------------
A---5-5-5-5-0-00-000-5-5-5-5-0-00-000-5-5-5-5-0-00-000-7-7-7-77-77-777
E---------------------------------------------------------------------

G---------------------------------------------------------------
D---------------------------------------------------------------
A----5-5-5-5-0-0-0-0-0-0-5-5-5-5-0-0-0-0-0-0-5-5-5-5-0-0-0-0-0-0
E---------------------------------------------------------------

Ending:
G---------------------------------------------------------------------
D------9-7-6-----------9-7-6-----------9-7-6-----------9-7-6----------
A----7-------9-7-7-9-7-------9-7-7-9-7-------9-7-7-9-7-------9-7-555-0
E---------------------------------------------------------------------
Comments