Green Day - Longview Chords & Tabs

 

Longview Chords & Tabs

Green Day Chords & Tabs

Version: 8 Type: Tab 0 ratings
1 star 2 stars 3 stars 4 stars 5 stars
comments

Longview Tab

   
  
start of this song is just bass
and drums so i've skipped straight
to chorus.

chorus
e|------------------------------------------|
B|------------------------------------------|
G|-7-7-7-7-7-7-7-7-7-7-7--------------------|
D|-7-7-7-7-7-7-7-7-7-7-7--9-9-7-9-7-9-7-9-7-|
A|-5-5-5-5-5-5-5-5-5-5-5--9-9-7-9-7-9-7-9-7-|
E|------------------------7-7-7-7-7-7-7-7-7-|

e|--------------------|
B|--------------------|
G|----------9-9-9-----|
D|-7-5-7-5--9-9-9--9--|x4
A|-7-5-7-5--7-7-7--9--|
E|-5-5-5-5---------7--|
[ Tab from: http://www.guitartabs.cc/tabs/g/green_day/longview_tab_ver_8.html ]
0n 4th time
e|--------------------|
B|--------------------|
G|----------------8/9-|
D|-9-9-9-9-9-9-9--8/9-|
A|-9-9-9-9-9-9-9--6/7-|
E|-7-7-7-7-7-7-7------|

bridge
e|---------------------------------|
B|---------------------------------|
G|-9-9-9-9-9-9-9\7-7-7-7-7-7-7-7/9-|
D|-9-9-9-9-9-9-9\7-7-7-7-7-7-7-7/9-|x4
A|-7-7-7-7-7-7-7\5-5-5-5-5-5-5-5/7-|
E|---------------------------------|

then the same riff as chorus

outro
e|-----------12---------------|
B|-9-1010-12-12--9-1010-12-7--|
G|-9-9-9--9------9-9-9--9--7--|
D|----------------------------|x8
A|----------------------------|
E|----------------------------|

wicked song, got on my bloody nerves though!
Comments