Green Day - Longview Chords & Tabs

 

Longview Chords & Tabs

Green Day Chords & Tabs

Version: 6 Type: Tab 0 ratings
1 star 2 stars 3 stars 4 stars 5 stars
comments

Longview Tab

   
this songs asewome!

key:
*=let ring
\=slide down

verse:
play this at the end of every bass riff
e---------|
B---------|
G-8-6-5-6-|
D---------|
A---------|
E---------|

chorus:
e-----------------------------|
B-----------------------------|
G-666666666666------------8-8-|
D-6666666666668-8-8-8-6-6-8-8-|
A-4444444444448-8-8-8-6-6-6-6-|
E-------------6-6-6-6-4-4-----|

e-----------------|
B-----------------|
G-------------8-8-|
D-8-8-8-8-6-6-8-8-|x2
A-8-8-8-8-6-6-6-6-|
E-6-6-6-6-4-4-----|

e---------------------|
B---------------------|
G-----------------8*\-|
D-8-8-8-8-6-6-6-6-8*\-|
A-8-8-8-8-6-6-6-6-6*\-|
E-8-8-8-8-6-6-6-6-----|

verse:
e---------|
B---------|
G-8-6-5-6-|
D---------|
A---------|
E---------|

chorus:
e-----------------------------|
B-----------------------------|
G-666666666666------------8-8-|
D-6666666666668-8-8-8-6-6-8-8-|
A-4444444444448-8-8-8-6-6-6-6-|
E-------------6-6-6-6-4-4-----|

e-----------------|
B-------------8-8-|
G-8-8-8-8-6-6-8-8-|
D-8-8-8-8-6-6-6-6-|x2
A-6-6-6-6-4-4-----|
E-----------------|

e-----------------|
B-----------------|
G-----------------|
D-8-8-8-8-6-6-6-6-|
A-8-8-8-8-6-6-6-6-|
E-6-6-6-6-4-4-4-4-|

bridge:
e-----------------|
B-----------------|
G-8-8-8-8-6-6-6-6-|
D-8-8-8-8-6-6-6-6-|x4
A-6-6-6-6-4-4-4-4-|
E-----------------|

e-----------------|
B-----------------|
G-------------8-8-|
D-8-8-8-8-6-6-8-8-|x3
A-8-8-8-8-6-6-6-6-|
E-6-6-6-6-4-4-----|
[ Tab from: http://www.guitartabs.cc/tabs/g/green_day/longview_tab_ver_6.html ]
e---------------------|
B---------------------|
G-----------------8*\-|
D-8-8-8-8-6-6-6-6-8*\-|
A-8-8-8-8-6-6-6-6-6*\-|
E-6-6-6-6-4-4-4-4-----|

verse:
e---------|
B---------|
G-8-6-5-6-|
D---------|
A---------|
E---------|

chorus:
e-----------------------------------------|
B-----------------------------------------|
G-666666666666666666666666------------8-8-|
D-6666666666666666666666668-8-8-8-6-6-8-8-|
A-4444444444444444444444448-8-8-8-6-6-6-6-|
E-------------------------6-6-6-6-4-4-----|

e-----------------|
B-----------------|
G-------------8-8-|
D-8-8-8-8-6-6-8-8-|x6
A-8-8-8-8-6-6-6-6-|
E-6-6-6-6-4-4-----|

e-----------------|
B-----------------|
G-------------8*\-|
D-8-8-8-8-6-6-8*\-|
A-8-8-8-8-6-6-6*\-|
E-6-6-6-6-4-4-----|

outro:
e-------------------11*\-|
B-8-9-9-6*\--8-9-11------|
G------------------------|
D------------------------|keep playin this till the end
A------------------------|
E------------------------|



some of you want to know the bass part, so here it is

G----------------------------------|
D----8-6-5---6-5-----8-6-5-5-5-5-5-|
A-\6------64-----486---------------|
E----------------------------------|

only slide the first time. mike does somthing different sometimes, but this 
is almost the same thing.



thats it!

if you have questions, need the lyrics, or just wanna tell me how great i am,
email me at fuser158@sbcglobal.net

ultimate guitar, for some people its the only good thing in life

                                          ~
rate this, por favor (thats please in espanolo)
Comments