Green Day - Longview (real Version) Chords & Tabs

 

Longview (real Version) Chords & Tabs

Green Day Chords & Tabs

Version: 1 Type: Bass Tab 5 ratings
1 star 2 stars 3 stars 4 stars 5 stars
comments

Longview (real Version) Bass Tab

Title: "Longview"
Artist: Green Day
Album: Dookie

Standard Tuning E A D G. The way I play it, you don't have to down-tune. I checked the other 
tabs, and they weren't good. This is actually how Mike Dirnt plays it. 

INTRO (Slide down from the 13th tab on the D string up to about, the 6th tab on the D string)
(===============================================2x's=============================================)
G|-------------------------------------------------8--6--5--6------------------------------------|
D|-------------8--6--5-----6--5----------8--6--5---6--6--6--6------------------------------------|
A|--------4/6----------6/4-------4---8-6---------------------------------------------------------|
E|-----------------------------------------------------------------------------------------------|

VERSE I
(================================================3x's============================================)
G|-------------------------------------------------8--6--5--6------------------------------------|
D|-------------8--6--5-----6--5----------8--6--5---6--6--6--6------------------------------------|
A|--------4/6----------6/4-------4---8-6---------------------------------------------------------|
E|-----------------------------------------------------------------------------------------------|

G|-----------------------------------------------------------------------------------------------|
D|-------------8--6--5-----6--5----------8--6--5-------------------------------------------------|
A|--------4/6----------6/4-------4---8-6---------------------------------------------------------|
E|------------------------------------------------4-4-4-4----------------------------------------|

CHORUS I
G|-----------------------------------------------------------------------------------------------|
D|-----------------------------------------------------------------------------------------------|
A|-------------------------------------6-66------------------------------------------------------|
E|-------------------6--6--6--6--4--4-------4/6--------------------------------------------------|

(===============================================2x's=============================================)
G|-----------------------------------------------------------------------------------------------|
D|-----------------------------------------------------------------------------------------------|
A|-------------------------------------6-66------------------------------------------------------|
E|---------------------6--6--6--4--4-------4/6---------------------------------------------------|

G|-----------------------------------------------------------------------------------------------|
D|-----------------------------------------------------------------------------------------------|
A|-----------------------------------------------------------------------------------------------|
E|---------------------------6--6--6--4--4--4--4-------------------------------------------------|

VERSE II

(===============================================2x's=============================================)
G|--------------------8-------8---6--5-----------------------------------------------------------|
D|------------------------6-8---8-------8--6-----------------------------------------------------|
A|------------------6---6------------------------------------------------------------------------|
E|-----------------------------------------------------------------------------------------------|

(================================================3x's============================================)
G|-------------------------------------------------8--6--5--6------------------------------------|
D|-------------8--6--5-----6--5----------8--6--5---6--6--6--6------------------------------------|
A|--------4/6----------6/4-------4---8-6---------------------------------------------------------|
E|-----------------------------------------------------------------------------------------------|

G|-----------------------------------------------------------------------------------------------|
D|-------------8--6--5-----6--5----------8--6--5-------------------------------------------------|
A|--------4/6----------6/4-------4---8-6---------------------------------------------------------|
E|------------------------------------------------4-4-4-4----------------------------------------|

CHORUS II

G|-----------------------------------------------------------------------------------------------|
G|-----------------------------------------------------------------------------------------------|
A|-------------------------------------6-66------------------------------------------------------|
E|-------------------6--6--6--6--4--4-------4/6--------------------------------------------------|
[ Tab from: http://www.guitartabs.cc/tabs/g/green_day/longview_real_version_btab.html ]
(===============================================2x's=============================================)
G|-----------------------------------------------------------------------------------------------|
D|-----------------------------------------------------------------------------------------------|
A|-------------------------------------6-66------------------------------------------------------|
E|---------------------6--6--6--4--4-------4/6---------------------------------------------------|

G|-----------------------------------------------------------------------------------------------|
D|-----------------------------------------------------------------------------------------------|
A|-----------------------------------------------------------------------------------------------|
E|---------------------------6--6--6--4--4--4--4-------------------------------------------------|

BRIDGE

(===============================================4x's=============================================)
G|-----------------------------------------------------------------------------------------------|
D|-----------------------------------------------------------------------------------------------|
A|---------------------------6-X-6-X-6--4--5-----------------------------------------------------|
E|---------------------------------------------6--4----------------------------------------------|

G|-----------------------------------------------------------------------------------------------|
D|-----------------------------------------------------------------------------------------------|
A|-------------------------------------6-66------------------------------------------------------|
E|-------------------6--6--6--6--4--4-------4/6--------------------------------------------------|

(===============================================2x's=============================================)
G|-----------------------------------------------------------------------------------------------|
D|-----------------------------------------------------------------------------------------------|
A|-------------------------------------6-66------------------------------------------------------|
E|---------------------6--6--6--4--4-------4/6---------------------------------------------------|

G|-----------------------------------------------------------------------------------------------|
D|-----------------------------------------------------------------------------------------------|
A|-----------------------------------------------------------------------------------------------|
E|---------------------------6--6--6--4--4--4--4-------------------------------------------------|

VERSE III

(===============================================6x's=============================================)
G|--------------------8-------8---6--5-----------------------------------------------------------|
D|------------------------6-8---8-------8--6-----------------------------------------------------|
A|------------------6---6------------------------------------------------------------------------|
E|-----------------------------------------------------------------------------------------------|

G|-------------------------------------------------8--6--5--6------------------------------------|
D|-------------8--6--5-----6--5----------8--6--5---6--6--6--6------------------------------------|
A|----------4----------6/4-------4---8-6---------------------------------------------------------|
E|-----------------------------------------------------------------------------------------------|

G|-----------------------------------------------------------------------------------------------|
D|-------------8--6--5-----6--5----------8--6--5-------------------------------------------------|
A|----------4----------6/4-------4---8-6----------4-4-4-4-4-4-4----------------------------------|
E|--------------------------------------------------------------4--------------------------------|

CHORUS III

G|-----------------------------------------------------------------------------------------------|
D|-----------------------------------------------------------------------------------------------|
A|-------------------------------------6-66------------------------------------------------------|
E|-------------------6--6--6--6--4--4-------4/6--------------------------------------------------|

(===============================================6x's=============================================)
G|-----------------------------------------------------------------------------------------------|
D|-----------------------------------------------------------------------------------------------|
A|-------------------------------------6-66------------------------------------------------------|
E|---------------------6--6--6--4--4-------4/6---------------------------------------------------|

G|-----------------------------------------------------------------------------------------------|
D|-----------------------------------------------------------------------------------------------|
A|-----------------------------------------------------------------------------------------------|
E|---------------------------6--6--6--4--4--4--4-------------------------------------------------|

OUTRO (Repeat 10x's, more or less)

G|--------------------8-------8---6--5-----------------------------------------------------------|
D|------------------------6-8---8-------8--6-----------------------------------------------------|
A|------------------6---6------------------------------------------------------------------------|
E|-----------------------------------------------------------------------------------------------|

GREEN DAY ROCKS!!!!!!			
Comments