Green Day - Longview Chords & Tabs

 

Longview Chords & Tabs

Green Day Chords & Tabs

Version: 9 Type: Bass Tab 0 ratings
1 star 2 stars 3 stars 4 stars 5 stars
comments

Longview Bass Tab

this is a great bass line from green day's classic dookie album. It is also 100%
correct. if you have any questions email me at I15Camel@aol.com. enjoy! guitar
is tuned a half step down

/=slide 
x=mute
h=hammer on
po=pull off

-------------------------------------------------------
-------------------------------------------------------
drum intro---------19/18-18/17-17/16-16/15-15/14-14/13-
-------------------------------------------------------

------------------------------------------7h9-7-6-7-----------------------
----------9-7-6-------7-6----4-----9-7-6--0---0-0-0-0-----9-7-6------7-6--
--x-0--7---------7-5------5-----7----------------------7---------7-5-----5
--------------------------------------------------------------------------

--------------7h9-7-6-7
--4----9-7-6--0---0-0-0
----7------------------
-----------------------

VERSE 1
----------------------------------7h9-7-6-7----------------------------------
----9-7-6------7-6-----4---9-7-6--0---0-0-0--0----9-7-6------7-6----4---9-7-6
-7--------7-5-------5----7---------------------7---------7-5------5---7------
-----------------------------------------------------------------------------

-
-7h9-7-6-7------------------------------------7h9-7-6-7----------------------
-0---0-0-0--0----9-7-6-------7-6----4---9-7-6-0---0-0-0--0----9-7-6-----7-6--
--------------7---------7-5------5----7--------------------7--------7-5-----5
-----------------------------------------------------------------------------

-------------
--4---9-7-6--
----7-------7
-------------

chorus

-----------------------|----------------------------------------------
-----------------------|----------------------------------------------
5-5-5-5-5-5-5-5-5-5-5-0|-----------------------7-7-7-0----------------
-----------------------|7-x-7-x-7-x-7-x-5-x-5-x---------7-x-7-x-7-x-7-

----------------------------------------------------------------------------
----------------------------------------------------------------------------
---------7-7-7-0-------------------------7-7-7-0----------------------------
-5-x-5-x---------7-x-7-x-7-x-7-x-5-x-5-x---------7-x-7-x-7-7-7-5-5-5-5-5-5-5

--
--
--
-5

2nd verse 

-----9------9----7-7-5-4-4-----------9--------9----7-7-6-4-4----
--------7h9---9--0-0-0-0----7--0-------7--7h9---9--0-0-0-0-0-7-0
--7-------------------------------7-----------------------------
----------------------------------------------------------------


----------------------------------7h9-7-6-7---------------------------------
-----9-7-6-------7-6---4---9-7-6--0---0-0-0-0----9-7-6------7-6----4---9-7-6
--7---------7-5------5---7--------------------7--------7-5------5----7------
----------------------------------------------------------------------------

-7h9-7-6-7-----------------------------------7h9-7-6-7-----------------------
-0---0-0-0-0----9-7-6-------7-6----4---9-7-6-0---0-0-0-0----9-7-6------7-6---
-------------7---------7-5------5----7-------------------7---------7-5-----5-
-----------------------------------------------------------------------------

[ Tab from: http://www.guitartabs.cc/tabs/g/green_day/longview_btab_ver_9.html ]
7------------------------------------
-0----9-7-6-------7-6----4----9-7-6--
---7---------7-5------5----7--------7
-------------------------------------
choures 2
------------------------|-------------------------------------------------
------------------------|-------------------------------------------------
-5-5-5-5-5-5-5-5-5-5-5-0|-------------------------7-7-7-0-----------------
------------------------|-7-x-7-x-7-x-7-x-5-x-5-x---------7-x-7-x-7-x-7-x-

-----------------------------------------------------------------------------
-----------------------------------------------------------------------------
--------7-7-7-0-------------------------7-7-7-0------------------------------
5-x-5-x---------7-x-7-x-7-x-7-x-5-x-5-x---------7-x-7-x-7-7-7-5-5-5-5-5-5-5-5

play this part during the "i got no motivation" then go to the verse 2

----------------|---9-------------------------9-------------------------9--
----------------|-----9--7--6--------------------9--7--6------------------9
----------------|-7------------5--4--------7--------------5--4-------7-----
-5-5-5-5-5-5-5-5|--------------------7--5-----------------------7--5-------

-----------------------9-----------------------|--------------------------
--------------------------9--7--6--------------|--------------------------
--7--6--5--4--------7---------------5--4-------|--------------------------
--------------7--5------------------------7--5-|-7-x-7-x-7-x-7-x--5-5-5-x-



----------|play 3 times not the motivation part just where it starts hittting
----------|the 7th fret alot.
-7-7-7-7-0|
----------|


----9-------9----7-7-6---4-4----
------7-7h9---9--0-0-0-0-0---7-0  X2
-7------------------------------
--------------------------------


verse 3

-----9--------9----7-7-6---4----------9-------9----7-7-6-4-4----
-------7--7h9---9--0-0-0-0-0--7-0-------7-7h9---9--0-0-0-0-0-7-0
--7--------------------------------7----------------------------
----------------------------------------------------------------

-----------------------------------7h9-7-6-7--
----9-7-6-------7-6---4-----9-7-6--0---0-0-0-0
--7--------7-5------5----7--------------------
----------------------------------------------


chorus
-------------------------------------------------|------------------------
-------------------------------------------------|------------------------
-5-5-5-5-5-5-5-5-5-5-5-5-5-5-5-5-5-5-5-5-5-------|------------------------
--------------------------------------------5-5-5|-7-x-7-x-7-x-7-x-5-x-5-x


--------------------------------------------------------------------------
--------------------------------------------------------------------------
-7-7-7-0--------------------------7-7-7-0--------------------------7-7-7-0
---------7-x-7-x-7-x-7-x-5-x-5-x-----------7-x-7-x-7-x-7-x-5-x-5-x--------

-----------------------------------------------------9-------9---7-7-6-4-4
-------------------------------------------------------7-7h9---9-0-0-0-0-0
-------------------------7-7-7-0------------------7-----------------------
-7-x-7-x-7-x-7-x-5-x-5-x----------5-5-5-5-5-5-5-5-------------------------


-----
--7-0
-----
----- repeat till end of song



thats it its pretty easy its alot of the same over and over again but again
if any questions email me.
Comments