Green Day - Longview Chords & Tabs

 

Longview Chords & Tabs

Green Day Chords & Tabs

Version: 8 Type: Bass Tab 0 ratings
1 star 2 stars 3 stars 4 stars 5 stars
comments

Longview Bass Tab

Green Day - "Longview"
International Superhits, Dookie
Tabbed by: Evan

x = dead note/palm muted
Listen to song for timing, some of its weird

Intro

G-------------
D-------------
A---19/7------ Gradually slide down while picking fast with up + down strokes
E-------------


Riff #1

G---------------------------------8-6-5-6--
D------8-6-5-----6-4-3-----8-6-5-----------
A--5/6-------3/4-------5/6-----------------
E------------------------------------------

Mike plays it like this live
G---------------------------------8-6-5-6--
D------8-6-5-----6-4-3-----8-6-5--0-0-0-0--
A--5/6-------3/4-------5/6-----------------
E------------------------------------------


Chorus
[ Tab from: http://www.guitartabs.cc/tabs/g/green_day/longview_btab_ver_8.html ]
G-----------------------------------
D-----------------------------------
A--------------------------7-x-7-x-- (x3)
E--7-x-7-x-7-x-7-x-5-x-5-x----------

Then, on 4th time

G--------------------------------
D--------------------------------
A--------------------------------
E--7-x-7-x-7-x-7-x-5-5-5-5-5-5---


Riff #2

G------9---------7-6------
D--------7h8h9--7----9-7--
A--0h7--------------------
E-------------------------


Riff #3 ("I've got no motivation...")

G-----------------------
D------9-7-6------------
A--0h7-------0h5-4-2-0--
E-----------------------

ORDER

Intro    (x1)
Riff#1   (x6)
Chorus   (x1)
Riff #2  (x2)
Riff #1  (x4)
Chorus   (x1)
Riff #3  (x4)
Chorus   (x1)
Riff #2  (x6)
Riff #1  (x2)
Chorus   (x2)
Riff #2  Repeat until end and fade out
Comments