Green Day - Long View Chords & Tabs

 

Long View Chords & Tabs

Green Day Chords & Tabs

Version: 1 Type: Tab 1 rating
1 star 2 stars 3 stars 4 stars 5 stars
comments

Long View Tab

   
hey, this is Long View, rememeber to tune down 1/2 a semitone:


the verse is all bass pretty much, the start opens on an F#5
the other bits go like this.

  D                      B5                   A5     E5    B5
|------------------------------------------------------------|
|-7-7-7-7-7-7-7-7-7-7-7--------------------------------------|
|-7-7-7-7-7-7-7-7-7-7-7------------------------------9-9-9---|
|-7-7-7-7-7-7-7-7-7-7-7--9---9-7-9-7-9-7-9-7-7-5-7-5-9-9-9-9-|
|-5-5-5-5-5-5-5-5-5-5-5--9---9-7-9-7-9-7-9-7-7-5-7-5-7-7-7-9-|
|------------------------7---7-7-7-7-7-7-7-7-5-5-5-5-------7-|

[ Tab from: http://www.guitartabs.cc/tabs/g/green_day/long_view_tab.html ]
                     A5          E5       B5
|--------------------------------------------------------------------|
|--------------------------------------------------------------------|
|--------------------------------9--9--9-----------------------------|
|---9-7-9-7-9-7-9-7--7--5--7--5--9--9--9--9---9--7--9--7--9--7--9--7-|
|---9-7-9-7-9-7-9-7--7--5--7--5--7--7--7--9---9--7--9--7--9--7--9--7-|
|---7-7-7-7-7-7-7-7--5--5--5--5-----------7---7--7--7--7--7--7--7--7-|


  A5      E5    B5                A5            D#5 E5      D#5 D
|--------------------------------------------------------------------|
|--------------------------------------------------------------------|
|---------9-9-9-----------------------------------8/9-----(9)\8\7----|
|-7-5-7-5-9-9-9-9-9-7-9-7-9-7-9-7-7-7-7-7-7-7-7-7-8/9-----(9)\8\7----|
|-7-5-7-5-7-7-7-9-9-7-9-7-9-7-9-7-7-7-7-7-7-7-7-7-6/7-----(7)\6\5----|
|-5-5-5-5-------7-7-7-7-7-7-7-7-7-5-5-5-5-5-5-5-5--------------------|


Thats what most of it is like, 
I cant be bothered tabbing it all out again, there is one wee cool
bit near the end:


|------------------------------------------------12--|
|-9h10---10----7-------(7)\------9h10----12--12--12--|
|-9-------9----7-------(7)\------9--------9---9------|
|----------------------------------------------------|
|----------------------------------------------------|
|----------------------------------------------------|

It does that a few times. Thats all, bye.
Comments