Green Day - Lights Out Chords & Tabs

 

Lights Out Chords & Tabs

Green Day Chords & Tabs

Version: 2 Type: Tab 0 ratings
1 star 2 stars 3 stars 4 stars 5 stars
comments

Lights Out Tab

Green Day - Lights Out
By Frazer Stockton

Intro 
e|-----------------------------------------------------|
B|-----------------------------------------------------|
G|-----------------------------------------------------|
D|-----------------------------------------------------|
A|------------------33-------------------33------------|
E|---44444444444444-----22222222222222---------(x2)----|



Verse
e|-----------------------------------------------------|
B|-----------------------------------------------------|
G|-----------------------------------------------------|
D|--666666666666----444444444444-----------------------|
A|--666666666666----444444444444-----------------------|
E|--444444444444----222222222222-------(x2)------------|

     
e|-----------------------------------------------------|
B|-----------------------------------------------------|
G|-33333333---------------------------88888888---------|
D|-33333333---------44444444----------88888888---------|
A|-11111111---------44444444----------66666666---------|
E|-----------4^-4---22222222----1^---------------------|


Interlude
e|-----------------------------------------------------|
B|-----------------------------------------------------|
G|-----------------------------------------------------|
D|-----------------------------------------------------|
A|------------------33-------------------33------------|
E|---44444444444444-----22222222222222-----------------|

Verse 2 

e|-----------------------------------------------------|
B|-----------------------------------------------------|
G|-6---------------------------------------------------|
D|-6666666666666----444444444444-----------------------|
A|-4666666666666----444444444444-----------------------|
E|--444444444444----222222222222-------(x4)------------|

e|-----------------------------------------------------|
B|-----------------------------------------------------|
G|-33333333---------------------------88888888---------|
D|-33333333---------44444444----------88888888---------|
A|-11111111---------44444444----------66666666---------|
E|-----------4^-4---22222222----1^---------------------|
[ Tab from: http://www.guitartabs.cc/tabs/g/green_day/lights_out_tab_ver_2.html ]
Interlude
e|-----------------------------------------------------|
B|-----------------------------------------------------|
G|-----------------------------------------------------|
D|-----------------------------------------------------|
A|------------------33-------------------33------------|
E|---44444444444444-----22222222222222-----------------|

Solo
e|-----------------------------------------------------|
B|-----------------------------------------------------|
G|-----------------------------------------------------|
D|--6---6---6----4---4---4------5----6---6---6---------|
A|----6---6---6-----4---4---4-----------6---6---6------|
E|-----------------------------------------------------|

e|-----------------------------------------------------|
B|-----------------------------------------------------|
G|---------------------3-------------------------------|
D|---4---4---4-----------------------------------------|
A|------4---4---4--------------------------------------|
E|-----------------------------------------------------|

Interlude
e|-----------------------------------------------------|
B|-----------------------------------------------------|
G|-----------------------------------------------------|
D|-----------------------------------------------------|
A|------------------33-------------------33------------|
E|---44444444444444-----22222222222222-----------------|

Verse 3
e|-----------------------------------------------------|
B|-----------------------------------------------------|
G|-6---------------------------------------------------|
D|-6666666666666----444444444444-----------------------|
A|-4666666666666----444444444444-----------------------|
E|--444444444444----222222222222-------(x4)------------|

e|-----------------------------------------------------|
B|-----------------------------------------------------|
G|-33333333---------------------------88888888---------|
D|-33333333---------44444444----------88888888---------|
A|-11111111---------44444444----------66666666---------|
E|-----------4^-4---22222222----1^---------------------|




Outro
e|-----------------------------------------------------|
B|-----------------------------------------------------|
G|-----------------------------------------------------|
D|-----------------------------------------------------|
A|------------------33---------------------------------|
E|---44444444444444-----22222222222222-----------------|
Comments