Green Day - Lights Out Chords & Tabs

 

Lights Out Chords & Tabs

Green Day Chords & Tabs

Version: 3 Type: Bass Tab 0 ratings
1 star 2 stars 3 stars 4 stars 5 stars
comments

Lights Out Bass Tab

Artist: Green Day
Song: Lights Out
Album: Know Your Enemy (Single)
Tabbed By: Jon T. Houle
Intro

G|-----------------------------------------------------|
D|-----------------------------------------------------|
A|------------------33-------------------33------------|
E|---44444444444444-----22222222222222---------(x2)----|

Verse

G|-------------------------------------------------------|
D|-------------------------------------------------------|
A|-------------------------------------------------------|
E|----444444444444----222222222222-------(x2)------------|

G|-----------------------------------------------------|
D|-----------------------------------------------------|
A|-11111111---------------------------66666666---------|
E|-----------4^-4---22222222----1^---------------------|

Interlude

G|-----------------------------------------------------|
D|-----------------------------------------------------|
A|------------------33-------------------33------------|
E|---44444444444444-----22222222222222-----------------|

Verse 2

G|-----------------------------------------------------|
D|-----------------------------------------------------|
A|-4---------------------------------------------------|
E|--444444444444----222222222222-------(x4)------------|
[ Tab from: http://www.guitartabs.cc/tabs/g/green_day/lights_out_btab_ver_3.html ]
G|-----------------------------------------------------|
D|-----------------------------------------------------|
A|-11111111---------------------------66666666---------|
E|-----------4^-4---22222222----1^---------------------|

Interlude

G|-----------------------------------------------------|
D|-----------------------------------------------------|
A|------------------33-------------------33------------|
E|---44444444444444-----22222222222222-----------------|

Solo 

Made a 110% by Douglas K. 

G:------------5---------------3---
D:-5---5---5------3---3---3-------
A:---5---5-----------3---3--------
E:--------------------------------

Interlude

G|-----------------------------------------------------|
D|-----------------------------------------------------|
A|------------------33-------------------33------------|
E|---44444444444444-----22222222222222-----------------|

Verse 3

G|-----------------------------------------------------|
D|-----------------------------------------------------|
A|-4---------------------------------------------------|
E|--444444444444----222222222222-------(x4)------------|

G|-----------------------------------------------------|
D|-----------------------------------------------------|
A|-11111111---------------------------66666666---------|
E|-----------4^-4---22222222----1^---------------------|

Outro

G|-----------------------------------------------------|
D|-----------------------------------------------------|
A|------------------33---------------------------------|
E|---44444444444444-----22222222222222-----------------|

My First Bass Tab Let Alone Any Tab So Please Don't Be Too Critical Just Help Me If I 
Anything Wrong.
Comments