Green Day - Letterbomb Chords & Tabs

 

Letterbomb Chords & Tabs

Green Day Chords & Tabs

Version: 1 Type: Tab 0 ratings
1 star 2 stars 3 stars 4 stars 5 stars
comments

Letterbomb Tab

   
Letterbomb
Music: Green Day
Album: American Idiot (2004)
Tab By: reizig (reizig@hotmail.com)

Standard Tuning (E A D G B E)
There may be some errors here and there.  If you find anything, drop me
A line.


Intro (the noises behind the girl singing are pick slides)

e|-----------------------------------------------------------|
B|-----------------------------------------------------------|
G|(9999999999999999-9999999999999999-9999999999999999)-------|
D|-xxxxxxxxxxxxxxxx-xxxxxxxxxxxxxxxx-xxxxxxxxxxxxxxxx--------|
A|-7777777777777777-7777777777777777-7777777777777777--------|
E|-----------------------------------------------------------|

e|-----------------------------------------------------------|
B|-----------------------------------------------------------|
G|(8888888888888888-9999999999999999-9999999999999999)-------|
D|-xxxxxxxxxxxxxxxx-xxxxxxxxxxxxxxxx-xxxxxxxxxxxxxxxx--------|
A|-6666666666666666-7777777777777777-7777777777777777--------|
E|-----------------------------------------------------------|

    E5  G#5 C#5 A
e|------------------|
B|------------------|
G|----------6-------|
D|--2---6---6---7---|
A|--2---6---4---7---|
E|--0---4-------5---|


(Where have all the bastards gone?)
    E5 (PM) A5   F#5 A5  E5    	     G#5 C#5 G#5 C#5 A5 E5     B5      B5
e|----------------------------------------------------------|-------------|
B|----------------------------------------------------------|-------------|
G|-----------------------111-22-11-------6-------6----------|-------------|
D|--2-------7----4---7---222-22-22---6---6---6---6---7--4---|--9--7/8--9--|
A|--2-------7----4---7---222-22-22---6---4---6---4---7--4---|--9--7/8--9--|
E|--0-------5----2---5---000-00-00---4-------4-------5--2---|--7--5/6--7--|


(Where have all the riots gone?...)
    E5 (PM) A5   F#5 A5  E5    	     G#5 C#5 G#5 C#5 A5 E5     B5
e|----------------------------------------------------------|-------------------------------------|
B|----------------------------------------------------------|-------------------------------------|
G|-----------------------111-22-11-------6-------6----------|-------------------------------------|
D|--2-------7----4---7---222-22-22---6---6---6---6---7--4---|--9--7/8--999---7/8--999---7/8--999--|
A|--2-------7----4---7---222-22-22---6---4---6---4---7--4---|--9--7/8--999---7/8--999---7/8--999--|
E|--0-------5----2---5---000-00-00---4-------4-------5--2---|--7--5/6--777---5/6--777---5/6--777--|


(The television's an obstructionist...)
   A5          		     B5
e|----------------------------------------------------------|
B|----------------------------------------------------------|
G|----------------------------------------------------------|
D|--7777777-6/7-7777777--6/9-9999999--7/9-9999-7/9-99-7/9---|
A|--7777777-6/7-7777777--6/9-9999999--7/9-9999-7/9-99-7/9---|
E|--5555555-4/5-5555555--4/7-7777777--5/7-7777-5/7-77-5/7---|


(It's not over till you're underground...)
    E5  B5  A5     E5  B5  A5     E5  B5  A5 F5     E5  B5  A5	   F#5     A
e|-----------------------------------------------------------------------------|
B|-----------------------------------------------------------------------------|
G|--9--------------9--------------9-----------------9--------------------------|
D|--9---9---7------9---9---7------9---9---7--3------9---9---7-------4------7---|
A|--7---9---7------7---9---7------7---9---7--3------7---9---7-------4------7---|
E|------7---5----------7---5----------7---5--1----------7---5-------2------5---|


Guitar 1			     (Where will all the martyrs go...)
e|-----------------------------------------------------------|
B|-----------------------------------------------------------|
G|(9999999999999999-9999999999999999-9999999999999999)-------|
D|-xxxxxxxxxxxxxxxx-xxxxxxxxxxxxxxxx-xxxxxxxxxxxxxxxx--------|
A|-7777777777777777-7777777777777777-7777777777777777--------|
E|-----------------------------------------------------------|

Guitar 2
e|-----------------------------------------------------------|
B|-----------------------------------9-----9-----9-----------|
G|--------------------------------------9-----9----9---------|
D|-----------------------------------------------------------|
A|-----------------------------------------------------------|
E|-----------------------------------------------------------|
[ Tab from: http://www.guitartabs.cc/tabs/g/green_day/letterbomb_tab.html ]
Guitar 1
e|-----------------------------------------------------------|
B|-----------------------------------------------------------|
G|(8888888888888888-999888x4x666x888-9998889999)-------------|
D|-xxxxxxxxxxxxxxxx-xxxxxxxxxxxxxxxx-xxxxxxxxxx--------------|
A|-6666666666666666-777666x2x444x666-7776667777--------------|
E|---------------------------------------------//////////////|
		     	                       ^pick-slide
Guitar 2
e|-----------------------------------------------------------|
B|-7-----7-----7----9-----9-----9----10----10----10----------|
G|----8-----8----8-----9-----9----9-----9-----9----9---------|
D|-----------------------------------------------------------|
A|-----------------------------------------------------------|
E|-----------------------------------------------------------|


    E5              G#5             C#5       A
e|------------------------------------------------------|
B|------------------------------------------------------|
G|----------------------------------6-------------------|
D|--2---------------6---------------6---------7---------|
A|--2---------------6---------------4---------7---------|
E|--0---------------4-------------------------5---------|

Guitar 1                            (Well don't look back...)
    E5              G#5
e|-----------------------------------------------------------------------|
B|-----------------------------------------------------------------------|
G|---------------------------------(9999888844448888-9999888844444444)---|
D|--2---------------6---------------xxxxxxxxxxxxxxxx-xxxxxxxxxxxxxxxx----|
A|--2---------------6---------------7777666622226666-7777666622222222----|
E|--0---------------4----------------------------------------------------|

Guitar 2
e|-----------------------------------------------------------------------|
B|-----------------------------------------------------------------------|
G|-9---9---9---9-9--8-88-8988-8-6-4--------------------------------------|
D|---9---9---9--9--------------------------------------------------------|
A|-----------------------------------------------------------------------|
E|-----------------------------------------------------------------------|


(You're not the Jesus of Suburbia...)
    B5      	   		    A5		 B5
e|------------------------------------------------------------------------|
B|------------------------------------------------------------------------|
G|------------------------------------------------------------------------|
D|--9-7/9-9999999--7/9-9999999--6/7-7777777--6/9-9999999--7/9-9999-7/9----|
A|--9-7/9-9999999--7/9-9999999--6/7-7777777--6/9-9999999--7/9-9999-7/9----|
E|--7-5/7-7777777--5/7-7777777--4/5-5555555--4/7-7777777--5/7-7777-5/7----|


(It's not over till you're underground...)
    E5  B5  A5     E5  B5  A5     E5  B5  A5 F5     E5  B5  A5
e|----------------------------------------------------------------|
B|----------------------------------------------------------------|
G|--9--------------9--------------9----------10-----9-------------|
D|--9---9---7------9---9---7------9---9---7--10-----9---9---7-----|
A|--7---9---7------7---9---7------7---9---7--8------7---9---7-----|
E|------7---5----------7---5----------7---5--8----------7---5-----|


(She said I can't take this place, I'm leaving it behind...)
    E5  G#5 C#5 A     E5  G#5 C#5 A
e|------------------------------------|
B|------------------------------------|
G|----------6-----------------6-------|
D|--2---6---6---7-----2---6---6---7---|
A|--2---6---4---7-----2---6---4---7---|
E|--0---4-------5-----0---4-------5---|


Guitar 1
e|------------------------------------------------------------|
B|------------------------------------------------------------|
G|------------------------------------------------------------|
D|--2------22-------2--------22------2------22--------2-------|
A|--2------22-------2--------22------2------22--------2-------|
E|--0------00-------0--------00------0------00--------0-------|

Guitar 2
e|------------------------------------------------------------|
B|------------------------------------------------------------|
G|(9999999999999999-9999999999999999-9999999999999999-9)------|
D|-xxxxxxxxxxxxxxxx-xxxxxxxxxxxxxxxx-xxxxxxxxxxxxxxxx-x-------|
A|-7777777777777777-7777777777777777-7777777777777777-7-------|
E|------------------------------------------------------------|


Lyrics: (not sure about these)

No body likes you
Everyone left you
They're all out without you
Having fun

Where have all the bastards gone?
The underbelly's accidental high
The dummy failed the crash test
Collecting unemployment checks
The flunky only along for the ride

Where have all the riots gone?
Acid City's model gets pulverized
What's in love is now in debt
On your birth certificate
So strike the fucking match to light this fuse

The television's an obstructionist
And you don't even know that you exist.
Standin' still with suit and tie
You better run for your fucking life

It's not over 'till you're underground
It's not hope before it's too late
This city's burning.  It's not my burden
It's not long before it's too late

There is nothing left to analyze

Where will all the martyrs go when the virus cures itself?
And where we will all go when it's too late

Well don't look back

You're not the Jesus of Suburbia
The St. Jimmy's opinion of
Your father's praise and your mother's love
That's made the idiot America

It's not over till you're underground
It's not hope before it's too late
This city's burning.  It's not my burden
It's not long before it's too late

She said I can't take this place
I'm leaving it behind

Well she said I can't take this town
I'm leaving you tonight
Comments