Green Day - Last Ride In Chords & Tabs

 

Last Ride In Chords & Tabs

Green Day Chords & Tabs

Version: 3 Type: Tab 0 ratings
1 star 2 stars 3 stars 4 stars 5 stars
comments

Last Ride In Tab

   
-------------------------------------------------------------------------------
			     LAST RIDE IN - Green Day
-------------------------------------------------------------------------------
Tabbed by:Chase Mathey
Email:muzikgrlzcookeez@aim.com

Tuning:Standard (E,A,D,G,B,E)

[ Tab from: http://www.guitartabs.cc/tabs/g/green_day/last_ride_in_tab_ver_3.html ]
riff 1
|-----------------------------------------------------|
|-----------------------------------------------------|
|-----------------------------------------------------|
|-----------------------------------------------------|
|--2-----2-0---2-4-4-0-2------2-----2-0---2-4-0-4-2---|
|------2--------------------------2-------------------|

riff 2
|------0-----------0-----------0----------------------|
|--------0-----------0-----------0--------------1-0---|
|---------------------------------------------0-------|
|--2-------4----2------4----2------2--------4---------|
|--2-------4----2------4----2------2--------4---------|
|--0-------2----0------2----0------0--------2---------|

riff 1 x2
riff 2 x1
riff 1 x2
riff 2 x1
riff 1 x4
riff 2 x1
riff 1 x2

Enjoy!

| /  slide up
| \  slide down
| h  hammer-on
| p  pull-off
| ~  vibrato
| +  harmonic
| x  Mute note
===============================================================================
Comments