Green Day - Last Ride In Chords & Tabs

 

Last Ride In Chords & Tabs

Green Day Chords & Tabs

Version: 12 Type: Tab 0 ratings
1 star 2 stars 3 stars 4 stars 5 stars
comments

Last Ride In Tab

   
-------------------------------------------------------------
Last Ride In  GREEN DAY
-------------------------------------------------------------

Tabbed by: Zach Galland
Email: kapnzach@gmail.com
Tuning: Standard

Last Ride in is off of Green Days experimental 1997 album Nimrod. 
This song is, to my knowledge, the only instrumental Green Day song. 
I always have the tune stuck in my head, so I decided to tab it. 
The only real difficult part is the solo thing played twice. 
Im not sure of the exact orders of everything, but its pretty easy to figure out. 
Email me with question/corrections, or comment!

Intro (0:08)
e|---------------------|
B|----4~---------------|
G|---4~----------------|
D|--4~-----------------|
A|-2~------------------|
E|---------------------|
[ Tab from: http://www.guitartabs.cc/tabs/g/green_day/last_ride_in_tab_ver_12.html ]
Main Riff (0:16)
e|---------------------|----------------------------|
B|---------------------|----------------------------|
G|---------------------|----------------------------|
D|---------------------|----------------------------|
A|2---2-0--2-4-4p0-2~--|2---2-0--2-4-0h4-2~---------|
E|--2------------------|--2-------------------------|

Bridge (0:47)
e|---0~----------0~---------0~----------------------|
B|-----0~----------0~---------0~--------------------|
G|-------------------------------------------4-3----|
D|2~------4---2~------4---2~----2~-22-4~--4----(4)-|
A|2~------4---2~------4---2~----2~-22-4~-----------|
E|0~------2---0~------2---0~----0~-00-2~-----------|

Solo Thing (1:17)
e|--------------------------------------------------|
B|2/4-4~-55-4-2-5/7-7~-99-7-55/7-7~-55-7-5-4~-------|
G|2/4-4~-66-4-2-6/8-8~-99-8-66/8-8~-66-8-6-4~-------|
D|--------------------------------------------------|
A|--------------------------------------------------|
E|--------------------------------------------------|

~ Let Ring
/ Slide
p Pull-off
h Hammer-on

Those are all the parts, just listen for when you need to play each one.
Comments