Green Day - Last Night On Earth Chords & Tabs

 

Last Night On Earth Chords & Tabs

Green Day Chords & Tabs

Version: 10 Type: Chords 0 ratings
1 star 2 stars 3 stars 4 stars 5 stars
comments

Last Night On Earth Chords

   
Greenday
Last Night On Earth
21st Century Breakdown
2009 Reprise Records
Submitted by: paramore_fans@yahoo.com

Key: A

Tuning: Standard EADGBe

Chords used:
A -    x02220
A2 -   x03220
A3 -   x04220
A7 -   x02020
D -    xx0232
Dm -   xx0231
F#m -  244222


Intro: Piano
A-A2-A3-A7-D-Dm-A--


Verse 1:
A          A2               A3
  I text a postcard sent to you
          A7
Did it go through?
D         Dm             A
  Sending all my love to you
A             A2
  You are the moonlight
      A3         A7
of my life every night
D        Dm             A
  Giving all my love to you


Chorus 1:
D            Dm              A
  My beating heart belong to you
D            Dm                 A
  I walk for miles 'til i found you
D             Dm
  I'm here to honor you
A    A7   F#m  E            D
If I lose everything in the fire
            Dm(hold)
I'm sending all my love to you


Guitar Solo: A-A2-A3-A7-D-Dm-A--

Guitar 2:
          A                A2                A3               
A7
e|---0---0---0---0-|---1---1---1---1-|---2---2---2---2-|---3---3---3---3-|
B|-----------------|-----------------|-----------------|-----------------|
G|-2---2---2---2---|-2---2---2---2---|-2---2---2---2---|-2---2---2---2---|
D|-----------------|-----------------|-----------------|-----------------|
A|-----------------|-----------------|-----------------|-----------------|
E|-----------------|-----------------|-----------------|-----------------|
[ Tab from: http://www.guitartabs.cc/tabs/g/green_day/last_night_on_earth_crd_ver_10.html ]
        D           Dm                 A
e|-2--2--2--2-|-1--1--1--1-|------------------------|
B|------------|------------|-3--3--3--3--2--2--2--2-|
G|------------|------------|------------------------|
D|------------|------------|------------------------|
A|------------|------------|------------------------|
E|------------|------------|------------------------|


Verse 2:
A            A2               A3
  With every breath that I am worth
A7
Here on earth
D             Dm             A
  I'm sending all my love to you
A           A2             A3
  So if you dare to second guess
        A7  D
You can rest assured
     Dm                A
That all my love's for you


(Repeat Chorus 1)


Guitar Solo: A-A2-A3-A7-D-Dm-A-- x2

Guitar 2:
        A      A2     A3     A7     D      
   A
e|---|-0--0-|-1--1-|-2--2-|-3--5-|-2--5-|-1--5-|-0-|
B|---|------|------|------|------|------|------|---|
G|-2-|------|------|------|------|------|------|---|
D|---|------|------|------|------|------|------|---| x2
A|---|------|------|------|------|------|------|---|
E|---|------|------|------|------|------|------|---|


Chorus 2:
D            Dm              A
  My beating heart belong to you
D            Dm                A
  I walk for miles til i found you
D             Dm
  I'm here to honor you
A    A7   F#m  E            D
If I lose everything in the fire
      Dm(hold)
Did I come and make it through


Outro: A-A2-A3-A7-D-Dm-A(hold)
Comments