Green Day - Know Your Enemy Chords & Tabs

 

Know Your Enemy Chords & Tabs

Green Day Chords & Tabs

Version: 10 Type: Tab 0 ratings
1 star 2 stars 3 stars 4 stars 5 stars
comments

Know Your Enemy Tab

Band: Green Day
Song: Know Your Enemy
Album: 21st Century Breakdown


-----------------------------------------------------------------------|
Intro

3 bars of nothing then

e|------------------||
B|------------------||
G|------------------||
D|------------------||
A|-------------7\0--||
E|-------------7\0--||
   1 + 2 + 3 + 4 +




-----------------------------------------------------------------------|
Intro

e|------------------|------------------|------------------|------------------||
B|------------------|------------------|------------------|------------------||
G|-------9-9--------|-------9-9--------|-------9-9--------|-------9-9--------||
D|-9---9-9-9-9-9-X--|-X-9-9-9-9-9-9-7--|-9---9-9-9-9-9-X--|-X-9-9-9-9-9-9-7--||
A|-9---9-7-7-9-9-X--|-X-9-9-7-7-9-9-7--|-9---9-7-7-9-9-X--|-X-9-9-7-7-9-9-7--||
E|-7---7-----7-7-X--|-X-7-7-----7-7-5--|-7---7-----7-7-X--|-X-7-7-----7-7-5--||  
   1 + 2 + 3 + 4 +    1 + 2 + 3 + 4 +    1 + 2 + 3 + 4 +    1 + 2 + 3 + 4 +




-----------------------------------------------------------------------|
Chorus - Doubled from bar 4

e|------------------|------------------|------------------|------------------||
B|------------------|------------------|------------------|------------------||
G|-------9-9--------|-------9-9--------|-------9-9--------|------------------||
D|-9---9-9-9-9-9-X--|-X-9-9-9-9-9-9-7--|-9---9-9-9-9-9-0--|-4-4-4-4-4-4-4-4--||
A|-9---9-7-7-9-9-X--|-X-9-9-7-7-9-9-7--|-9---9-7-7-9-9-0--|-4-4-4-4-4-4-4-4--||
E|-7---7-----7-7-X--|-X-7-7-----7-7-5--|-7---7-----7-7-0--|-2-2-2-2-2-2-2-2--||  
   1 + 2 + 3 + 4 +    1 + 2 + 3 + 4 +    1 + 2 + 3 + 4 +    1 + 2 + 3 + 4 +

e|------------------|------------------|------------------|------------------||
B|------------------|------------------|------------------|------------------||
G|-------9-9--------|-------9-9--------|-------9-9--------|------------------||
D|-9---9-9-9-9-9-X--|-X-9-9-9-9-9-9-7--|-9---9-9-9-9-9-0--|-4-4-4-4-4-4-4///-||
A|-9---9-7-7-9-9-X--|-X-9-9-7-7-9-9-7--|-9---9-7-7-9-9-0--|-4-4-4-4-4-4-4///-||
E|-7---7-----7-7-X--|-X-7-7-----7-7-5--|-7---7-----7-7-0--|-2-2-2-2-2-2-2///-||  
   1 + 2 + 3 + 4 +    1 + 2 + 3 + 4 +    1 + 2 + 3 + 4 +    1 + 2 + 3 + 4 +

last beat of last bar - Guitar two = Pickscrape

e|------------------|------------------|------------------|------------------||
B|------------------|------------------|------------------|------------------||
G|-------9-9--------|-------9-9--------|-------9-9--------|------------------||
D|-9---9-9-9-9-9-X--|-X-9-9-9-9-9-9-7--|-9---9-9-9-9-9-0--|-4-4-4-4-4-4-4-4--||
A|-9---9-7-7-9-9-X--|-X-9-9-7-7-9-9-7--|-9---9-7-7-9-9-0--|-4-4-4-4-4-4-4-4--||
E|-7---7-----7-7-X--|-X-7-7-----7-7-5--|-7---7-----7-7-0--|-2-2-2-2-2-2-2-2--||  
   1 + 2 + 3 + 4 +    1 + 2 + 3 + 4 +    1 + 2 + 3 + 4 +    1 + 2 + 3 + 4 +




-----------------------------------------------------------------------|
Verse - Just one guitar - 4 times

e|------------------|------------------|------------------|------------------||
B|------------------|------------------|------------------|------------------||
G|-------9-9--------|-------9-9--------|-------9-9--------|------------------||
D|-9---9-9-9-9-9-X--|-X-9-9-9-9-9-9-7--|-9---9-9-9-9-9-0--|-4-4-4-4-4-4-4-4--||
A|-9---9-7-7-9-9-X--|-X-9-9-7-7-9-9-7--|-9---9-7-7-9-9-0--|-4-4-4-4-4-4-4-4--||
E|-7---7-----7-7-X--|-X-7-7-----7-7-5--|-7---7-----7-7-0--|-2-2-2-2-2-2-2-2--||  
   1 + 2 + 3 + 4 +    1 + 2 + 3 + 4 +    1 + 2 + 3 + 4 +    1 + 2 + 3 + 4 +

Guitar 2 comes in with a pickscrape at the last bar before the chorus.



-----------------------------------------------------------------------|
2nd Chorus


e|------------------|------------------|------------------|------------------||
B|------------------|------------------|------------------|------------------||
G|-------9-9--------|-------9-9--------|-------9-9--------|------------------||
D|-9---9-9-9-9-9-X--|-X-9-9-9-9-9-9-7--|-9---9-9-9-9-9-0--|-4-4-4-4-4-4-4///-||
A|-9---9-7-7-9-9-X--|-X-9-9-7-7-9-9-7--|-9---9-7-7-9-9-0--|-4-4-4-4-4-4-4///-||
E|-7---7-----7-7-X--|-X-7-7-----7-7-5--|-7---7-----7-7-0--|-2-2-2-2-2-2-2///-||  
   1 + 2 + 3 + 4 +    1 + 2 + 3 + 4 +    1 + 2 + 3 + 4 +    1 + 2 + 3 + 4 +


last 2 beats of last bar - Guitar two = Pickscrape


e|------------------|------------------|------------------|------------------||
B|------------------|------------------|------------------|------------------||
G|-------9-9--------|-------9-9--------|-------9-9--------|------------------||
D|-9---9-9-9-9-9-X--|-X-9-9-9-9-9-9-7--|-9---9-9-9-9-9-0--|-4-4-4-4-4-4-4-4--||
A|-9---9-7-7-9-9-X--|-X-9-9-7-7-9-9-7--|-9---9-7-7-9-9-0--|-4-4-4-4-4-4-4-4--||
E|-7---7-----7-7-X--|-X-7-7-----7-7-5--|-7---7-----7-7-0--|-2-2-2-2-2-2-2-2--||  
   1 + 2 + 3 + 4 +    1 + 2 + 3 + 4 +    1 + 2 + 3 + 4 +    1 + 2 + 3 + 4 +



-----------------------------------------------------------------------|
Bridge

Guitar One and Two

e|------------------|------------------|------------------|------------------||
B|------------------|------------------|------------------|------------------||
G|-9-9-9-9-9-9-9----|---------------0--|-9-9-9-9-9-9-9----|---------------0--||
D|-9-9-9-9-9-9-9-9--|-9-9-9-9-9-9-9-0--|-9-9-9-9-9-9-9-9--|-9-9-9-9-9-9-9-0--||
A|-7-7-7-7-7-7-7-9--|-9-9-9-9-9-9-9-0--|-7-7-7-7-7-7-7-9--|-9-9-9-9-9-9-9-0--||
E|---------------7--|-7-7-7-7-7-7-7-0--|---------------7--|-7-7-7-7-7-7-7-0--||  
   1 + 2 + 3 + 4 +    1 + 2 + 3 + 4 +    1 + 2 + 3 + 4 +    1 + 2 + 3 + 4 +

e|------------------|------------------||
B|------------------|------------------||
G|-9-9-9-9-9-9-9----|---------------0--||
D|-9-9-9-9-9-9-9-9--|-9-9-9-9-9-9-9-0--||
A|-7-7-7-7-7-7-7-9--|-9-9-9-9-9-9-9-0--||
E|---------------7--|-7-7-7-7-7-7-7-0--||  
   1 + 2 + 3 + 4 +    1 + 2 + 3 + 4 +  

Guitar Three

e|-----7-------7----|---------7--------|-----7-------7----|---------7--------||
B|-5-5---5-5-4------|-----7-----7------|-5-5---5-5-4------|-----7-----7------||
G|---------------4--|-4-4---4-----4-4--|---------------4--|-4-4---4-----4-4--||
D|------------------|------------------|------------------|------------------||
A|------------------|------------------|------------------|------------------||
E|------------------|------------------|------------------|------------------||  
   1 + 2 + 3 + 4 +    1 + 2 + 3 + 4 +    1 + 2 + 3 + 4 +    1 + 2 + 3 + 4 +

e|-----7-------7----|---------7--------||
B|-5-5---5-5-4------|-----7-----7------||
G|---------------4--|-4-4---4-----4-4--||
D|------------------|------------------||
A|------------------|------------------||
E|------------------|------------------|| 
   1 + 2 + 3 + 4 +    1 + 2 + 3 + 4 +  



-----------------------------------------------------------------------|
Interlude

e|------------------|------------------||
B|------------------|------------------||
G|------------------|------------------||
D|-4---4-4-4-4-4-X--|-X-4-4-4-4-4-4-0--||
A|-4---4-2-2-4-4-X--|-X-4-4-2-2-4-4-0--||
E|-2---2-2-2-2-2-X--|-X-2-2-2-2-2-2-0--||  
   1 + 2 + 3 + 4 +    1 + 2 + 3 + 4 +  



-----------------------------------------------------------------------|
Guitar Solo + Interlude

Guitar One and Two

e|------------------|------------------|------------------|------------------||
B|------------------|------------------|------------------|------------------||
G|-------9-9--------|-------9-9--------|-------9-9--------|------------------||
D|-9---9-9-9-9-9-X--|-X-9-9-9-9-9-9-7--|-9---9-9-9-9-9-0--|-4-4-4-4-4-4-4-4--||
A|-9---9-7-7-9-9-X--|-X-9-9-7-7-9-9-7--|-9---9-7-7-9-9-0--|-4-4-4-4-4-4-4-4--||
E|-7---7-----7-7-X--|-X-7-7-----7-7-5--|-7---7-----7-7-0--|-2-2-2-2-2-2-2-2--||  
   1 + 2 + 3 + 4 +    1 + 2 + 3 + 4 +    1 + 2 + 3 + 4 +    1 + 2 + 3 + 4 +

e|------------------|------------------|------------------|------------------||
B|------------------|------------------|------------------|------------------||
G|-------9-9--------|-------9-9--------|-------9-9--------|------------------||
D|-9---9-9-9-9-9-X--|-X-9-9-9-9-9-9-7--|-9---9-9-9-9-9-0--|-4-4-4-4-4-4-4-4--||
A|-9---9-7-7-9-9-X--|-X-9-9-7-7-9-9-7--|-9---9-7-7-9-9-0--|-4-4-4-4-4-4-4-4--||
E|-7---7-----7-7-X--|-X-7-7-----7-7-5--|-7---7-----7-7-0--|-2-2-2-2-2-2-2-2--||  
   1 + 2 + 3 + 4 +    1 + 2 + 3 + 4 +    1 + 2 + 3 + 4 +    1 + 2 + 3 + 4 +

e|------------------|------------------|------------------|------------------||
B|------------------|------------------|------------------|------------------||
G|-9-9-9-9-9-9-9----|---------------0--|-9-9-9-9-9-9-9----|---------------0--||
D|-9-9-9-9-9-9-9-9--|-9-9-9-9-9-9-9-0--|-9-9-9-9-9-9-9-9--|-9-9-9-9-9-9-9-0--||
A|-7-7-7-7-7-7-7-9--|-9-9-9-9-9-9-9-0--|-7-7-7-7-7-7-7-9--|-9-9-9-9-9-9-9-0--||
E|---------------7--|-7-7-7-7-7-7-7-0--|---------------7--|-7-7-7-7-7-7-7-0--||  
   1 + 2 + 3 + 4 +    1 + 2 + 3 + 4 +    1 + 2 + 3 + 4 +    1 + 2 + 3 + 4 +
[ Tab from: http://www.guitartabs.cc/tabs/g/green_day/know_your_enemy_tab_ver_10.html ]
							Interlude-----|
							Just Guitar One
e|------------------|------------------||------------------|------------------||
B|------------------|------------------||------------------|------------------||
G|-9-9-9-9-9-9-9----|---------------0--||------------------|------------------||
D|-9-9-9-9-9-9-9-9--|-9-9-9-9-9-9-9-0--||-4---4-4-4-4-4-X--|-X-4-4-4-4-4-4-4--||
A|-7-7-7-7-7-7-7-9--|-9-9-9-9-9-9-9-0--||-4---4-2-2-4-4-X--|-X-4-4-2-2-4-4-2--||
E|---------------7--|-7-7-7-7-7-7-7-0--||-2---2-2-2-2-2-X--|-X-2-2-2-2-2-2-2--||
   1 + 2 + 3 + 4 +    1 + 2 + 3 + 4 +     1 + 2 + 3 + 4 +    1 + 2 + 3 + 4 +  

e|------------------|------------------||
B|------------------|------------------||
G|------------------|------------------||
D|-4---4-4-4-4-4-X--|-X-4-4-4-4-4-4-4--||
A|-4---4-2-2-4-4-X--|-X-4-4-2-2-4-4-4--||
E|-2---2-2-2-2-2-X--|-X-2-2-2-2-2-2-2--||  
   1 + 2 + 3 + 4 +    1 + 2 + 3 + 4 +  

Guitar Three

e|-7-7-7---7-7------|---7---7-11-7-----|-7-7-7---7-7-7----|-9-9---9-9---9----||
B|-------7-----7-7--|-7---7--------7~~-|-------7-------7--|-----7-----7---7--||
G|------------------|------------------|------------------|------------------||
D|------------------|------------------|------------------|------------------||
A|------------------|------------------|------------------|------------------||
E|------------------|------------------|------------------|------------------||  
   1 + 2 + 3 + 4 +    1 + 2 + 3 + 4 +    1 + 2 + 3 + 4 +    1 + 2 + 3 + 4 +

e|-7-7-7---7-7------|---7---7-11-7-----|-7-7-7---7-7-7----|-9-9---9-9---9----||
B|-------7-----7-7--|-7---7--------7~~-|-------7-------7--|-----7-----7---7--||
G|------------------|------------------|------------------|------------------||
D|------------------|------------------|------------------|------------------||
A|------------------|------------------|------------------|------------------||
E|------------------|------------------|------------------|------------------||  
   1 + 2 + 3 + 4 +    1 + 2 + 3 + 4 +    1 + 2 + 3 + 4 +    1 + 2 + 3 + 4 +

e|-----7-------7----|---------7--------|-----7-------7----|---------7--------||
B|-5-5---5-5-4------|-----7-----7------|-5-5---5-5-4------|-----7-----7------||
G|---------------4--|-4-4---4-----4-4--|---------------4--|-4-4---4-----4-4--||
D|------------------|------------------|------------------|------------------||
A|------------------|------------------|------------------|------------------||
E|------------------|------------------|------------------|------------------||  
   1 + 2 + 3 + 4 +    1 + 2 + 3 + 4 +    1 + 2 + 3 + 4 +    1 + 2 + 3 + 4 +

e|-----7-------7----|---------7--------|------------------|------------------||
B|-5-5---5-5-4------|-----7-----7-----/|/11---------------|------------------||
G|---------------4--|-4-4---4-----4-4-/|/11---------------|------------------||
D|------------------|------------------|---------------X--|-X----------------||
A|------------------|------------------|---------------X--|-X----------------||
E|------------------|------------------|---------------X--|-X----------------||
   1 + 2 + 3 + 4 +    1 + 2 + 3 + 4 +    1 + 2 + 3 + 4 +    1 + 2 + 3 + 4 +  

e|------------------|------------------||
B|------------------|------------------||
G|------------------|------------------||
D|------------------|------------------||
A|------------------|------------------||
E|------------------|------------------||  
   1 + 2 + 3 + 4 +    1 + 2 + 3 + 4 +  



-----------------------------------------------------------------------|
Verse - 4 times

e|------------------|------------------||
B|------------------|------------------||
G|------------------|------------------||
D|-4---4-4-4-4-4-X--|-X-4-4-4-4-4-4-4--||
A|-4---4-2-2-4-4-X--|-X-4-4-2-2-4-4-4--||
E|-2---2-2-2-2-2-X--|-X-2-2-2-2-2-2-2--||  
   1 + 2 + 3 + 4 +    1 + 2 + 3 + 4 +  



-----------------------------------------------------------------------|
Interlude


e|------------------|------------------|------------------|------------------||
B|------------------|------------------|------------------|------------------||
G|-------9-9--------|-------9-9--------|-------9-9--------|-------9-9--------||
D|-9---9-9-9-9-9-X--|-X-9-9-9-9-9-9-7--|-9---9-9-9-9-9-X--|-X-9-9-9-9-9-9-7--||
A|-9---9-7-7-9-9-X--|-X-9-9-7-7-9-9-7--|-9---9-7-7-9-9-X--|-X-9-9-7-7-9-9-7--||
E|-7---7-----7-7-X--|-X-7-7-----7-7-5--|-7---7-----7-7-X--|-X-7-7-----7-7-5--||  
   1 + 2 + 3 + 4 +    1 + 2 + 3 + 4 +    1 + 2 + 3 + 4 +    1 + 2 + 3 + 4 +


-----------------------------------------------------------------------|
Chorus - Doubled from bar 4

e|------------------|------------------|------------------|------------------||
B|------------------|------------------|------------------|------------------||
G|-------9-9--------|-------9-9--------|-------9-9--------|------------------||
D|-9---9-9-9-9-9-X--|-X-9-9-9-9-9-9-7--|-9---9-9-9-9-9-0--|-4-4-4-4-4-4-4-4--||
A|-9---9-7-7-9-9-X--|-X-9-9-7-7-9-9-7--|-9---9-7-7-9-9-0--|-4-4-4-4-4-4-4-4--||
E|-7---7-----7-7-X--|-X-7-7-----7-7-5--|-7---7-----7-7-0--|-2-2-2-2-2-2-2-2--||  
   1 + 2 + 3 + 4 +    1 + 2 + 3 + 4 +    1 + 2 + 3 + 4 +    1 + 2 + 3 + 4 +

e|------------------|------------------|------------------|------------------||
B|------------------|------------------|------------------|------------------||
G|-------9-9--------|-------9-9--------|-------9-9--------|------------------||
D|-9---9-9-9-9-9-X--|-X-9-9-9-9-9-9-7--|-9---9-9-9-9-9-0--|-4-4-4-4-4-4-4///-||
A|-9---9-7-7-9-9-X--|-X-9-9-7-7-9-9-7--|-9---9-7-7-9-9-0--|-4-4-4-4-4-4-4///-||
E|-7---7-----7-7-X--|-X-7-7-----7-7-5--|-7---7-----7-7-0--|-2-2-2-2-2-2-2///-||  
   1 + 2 + 3 + 4 +    1 + 2 + 3 + 4 +    1 + 2 + 3 + 4 +    1 + 2 + 3 + 4 +

e|------------------|------------------|------------------|------------------||
B|------------------|------------------|------------------|------------------||
G|-------9-9--------|-------9-9--------|-------9-9--------|------------------||
D|-9---9-9-9-9-9-X--|-X-9-9-9-9-9-9-7--|-9---9-9-9-9-9-0--|-4-4-4-4-4-4-4-4--||
A|-9---9-7-7-9-9-X--|-X-9-9-7-7-9-9-7--|-9---9-7-7-9-9-0--|-4-4-4-4-4-4-4-4--||
E|-7---7-----7-7-X--|-X-7-7-----7-7-5--|-7---7-----7-7-0--|-2-2-2-2-2-2-2-2--||  
   1 + 2 + 3 + 4 +    1 + 2 + 3 + 4 +    1 + 2 + 3 + 4 +    1 + 2 + 3 + 4 +


-----------------------------------------------------------------------|
Outro

Guitar One and Two

e|------------------|------------------|------------------|------------------||
B|------------------|------------------|------------------|------------------||
G|-------9-9--------|-------9-9--------|-------9-9--------|------------------||
D|-9---9-9-9-9-9-X--|-X-9-9-9-9-9-9-7--|-9---9-9-9-9-9-0--|-4-4-4-4-4-4-4///-||
A|-9---9-7-7-9-9-X--|-X-9-9-7-7-9-9-7--|-9---9-7-7-9-9-0--|-4-4-4-4-4-4-4///-||
E|-7---7-----7-7-X--|-X-7-7-----7-7-5--|-7---7-----7-7-0--|-2-2-2-2-2-2-2///-||  
   1 + 2 + 3 + 4 +    1 + 2 + 3 + 4 +    1 + 2 + 3 + 4 +    1 + 2 + 3 + 4 +

e|------------------|------------------|------------------|------------------||
B|------------------|------------------|------------------|------------------||
G|-------9-9--------|-------9-9--------|-------9-9--------|------------------||
D|-9---9-9-9-9-9-X--|-X-9-9-9-9-9-9-7--|-9---9-9-9-9-9-0--|-4-4-4-4-4-4-4-4--||
A|-9---9-7-7-9-9-X--|-X-9-9-7-7-9-9-7--|-9---9-7-7-9-9-0--|-4-4-4-4-4-4-4-4--||
E|-7---7-----7-7-X--|-X-7-7-----7-7-5--|-7---7-----7-7-0--|-2-2-2-2-2-2-2-2--||  
   1 + 2 + 3 + 4 +    1 + 2 + 3 + 4 +    1 + 2 + 3 + 4 +    1 + 2 + 3 + 4 +

Guitar Three

e|-7-7-7---7-7------|---7---7-11-7-----|-7-7-7---7-7-7----|-9-9---9-9---9----||
B|-------7-----7-7--|-7---7--------7~~-|-------7-------7--|-----7-----7---7--||
G|------------------|------------------|------------------|------------------||
D|------------------|------------------|------------------|------------------||
A|------------------|------------------|------------------|------------------||
E|------------------|------------------|------------------|------------------||  
   1 + 2 + 3 + 4 +    1 + 2 + 3 + 4 +    1 + 2 + 3 + 4 +    1 + 2 + 3 + 4 +

e|-7-7-7---7-7------|---7---7-11-7-----|-7-7-7---7-7-7----|-9-9---9-9---9----||
B|-------7-----7-7--|-7---7--------7~~-|-------7-------7--|-----7-----7---7--||
G|------------------|------------------|------------------|------------------||
D|------------------|------------------|------------------|------------------||
A|------------------|------------------|------------------|------------------||
E|------------------|------------------|------------------|------------------||  
   1 + 2 + 3 + 4 +    1 + 2 + 3 + 4 +    1 + 2 + 3 + 4 +    1 + 2 + 3 + 4 +

End on

Guitars One and Two

e|------------------||
B|------------------||
G|------------------||
D|-9----------------||
A|-9----------------||
E|-7----------------||
   1 + 2 + 3 + 4 +

Guitar Three

e|-7----------------||
B|------------------||
G|------------------||
D|------------------||
A|------------------||
E|------------------||
   1 + 2 + 3 + 4 +
Comments