Green Day - King For A Day Chords & Tabs

 

King For A Day Chords & Tabs

Green Day Chords & Tabs

Version: 2 Type: Bass Tab 0 ratings
1 star 2 stars 3 stars 4 stars 5 stars
comments

King For A Day Bass Tab

-----------------------------
--GREENDAY - King for a Day--
-----------------------------

Intro/Verse:  Started at, the age....
G|----------------------------|
D|----------------------------|
A|--7------7------4-----4-----|
E|-----7------7------4-----4--|


Pre-Chorus: Sugar and spice and everything...
G|--------------------------|
D|--------------------------|
A|--------------------------|
E|--5--5--5--5--7--7--7--7--| *each note has 2 counts
			       ie, play 5 x8 times and
			       then play 7 x8 times (double time)

[ Tab from: http://www.guitartabs.cc/tabs/g/green_day/king_for_a_day_btab_ver_2.html ]
Chorus: KING FOR A DAY!  Princess by dawn...
G|----------------------|--------------|
D|----------------------|--------------|
A|-------7-------7------|--4--4--4--4--|
E|---7-------7----------|--------------| *each 4 gets x2 counts


Just wait 'till all the guys.....
G|--------------------------|
D|--------------------------|
A|--------------------------|
E|--5--5--5--5--7--7--7--7--| *each note has 2 counts

Return to verse again....
During trumpet solos, continue verse

----------------------------
-- tabbed by Derek.exe V1 --
----------------------------
Comments