Green Day - Jesus Of Suburbia Chords & Tabs

 

Jesus Of Suburbia Chords & Tabs

Green Day Chords & Tabs

Version: 4 Type: Tab 0 ratings
1 star 2 stars 3 stars 4 stars 5 stars
comments

Jesus Of Suburbia Tab

   
Green Day - Jesus Of Suburbia
 > Jesus Of Suburbia
 > City Of The Damned
 > I Don't Care
 > Dearly Beloved
 > Tales Of Another Broken Home

This is an amazing song,with some cool ideas. I have tabbed it as one continuos song,
but there are titles to each of the sections.

\ Slide Up Neck
/ Slide Down Neck
x Palm Mute
* Let Ring
~ Vibrato
# Stop Note Dead

ENJOY!

00:00
Section 1: Jesus Of Suburbia

e-------------------------------------------------------------
b-------------------------------------------------------------
g-6-6-6-6#----------------------------------------------------
D-6-6-6-6#--8-8-8-8#--14\--4444444444444444-6666666666666-14\-
A-4-4-4-4#--8-8-8-8#--14\--4444444444444444-6666666666666-14\-
D-----------8-8-8-8#--14\--4444444444444444-6666666666666-14\-

e-------------------------------------------------------------
b-------------------------------------------------------------
g-6-6-6-6#----------------------------------------------------
D-6-6-6-6#--8-8-8-8#--14\--4444444444444444-6666666666666-14\-
A-4-4-4-4#--8-8-8-8#--14\--4444444444444444-6666666666666-14\-
D-----------8-8-8-8#--14\--4444444444444444-6666666666666-14\-

e----------------------------------------------|------------------
b----------------------------------------------|------------------
g----------------------------------------------|-6-6--------------
D-44-444-666-666-44-444-666-666-44-444-666-66#-|-6-6-66-4-4444444-  x2
A-44-444-666-666-44-444-666-666-44-444-666-66#-|-4-4-66-4-4444444-
D-44-444-666-666-44-444-666-666-44-444-666-66#-|-----66-4-4444444-

e-------------------------------------------------------------
b-------------------------------------------------------------
g-6-6-6-6#----------------------------------------------------
D-6-6-6-6#--8-8-8-8#--14\--4444444444444444-6666666666666-14\-
A-4-4-4-4#--8-8-8-8#--14\--4444444444444444-6666666666666-14\-
D-----------8-8-8-8#--14\--4444444444444444-6666666666666-14\-

e-------------------------------------------------------------
b-------------------------------------------------------------
g-6-6-6-6#----------------------------------------------------
D-6-6-6-6#--8-8-8-8#--14\--4444444444444444-6666666666666-14\-
A-4-4-4-4#--8-8-8-8#--14\--4444444444444444-6666666666666-14\-
D-----------8-8-8-8#--14\--4444444444444444-6666666666666-14\-

e----------------------------------------------|------------------
b----------------------------------------------|------------------
g----------------------------------------------|-6-6--------------
D-44-444-666-666-44-444-666-666-44-444-666-66#-|-6-6-66-4-4444444-  x2
A-44-444-666-666-44-444-666-666-44-444-666-66#-|-4-4-66-4-4444444-
D-44-444-666-666-44-444-666-666-44-444-666-66#-|-----66-4-4444444-

e-------------------------------------------------------------
b-------------------------------------------------------------
g-6-6-6-6#----------------------------------------------------
D-6-6-6-6#--8-8-8-8#--4444444444444444-6666666666666-14\-
A-4-4-4-4#--8-8-8-8#--4444444444444444-6666666666666-14\-
D-----------8-8-8-8#--4444444444444444-6666666666666-14\-

e------------------------------------
b------------------------------------
g-6-6-6-6#---------------------------
D-6-6-6-6#--3-3-3-3#--8-8-8-6-6-6-4*-
A-4-4-4-4#--3-3-3-3#--8-8-8-6-6-6-4*-
D-----------3-3-3-3#--8-8-8-6-6-6-4*-

01:54
Section 2: City Of The Damned

e-----
b-----
g-----
D-*/6-     *'s is -4*- carried on from last section      
A-*/6-            -4*- 
D-*/6-            -4*-

VERSE:
                               |e---------------------------------
     (BASS GUITAR)             |b---------------------------------
G------------------------      |g---------------------------------
D------------------------ Then |D-2-2-2-2-2-2-2-2-4-4-4-4-4-4-4-4-
A-444-4-333-3------------      |A-2-2-2-2-2-2-2-2-4-4-4-4-4-4-4-4-
D-------------666-6-444-4      |D-2-2-2-2-2-2-2-2-4-4-4-4-4-4-4-4-

                               |e---------------------------------
     (BASS GUITAR)             |b---------------------------------
G------------------------      |g---------------------------------
D------------------------ Then |D-2-2-2-2-2-2-2-2-4-4-4-4-4-4-4-4-
A-444-4-333-3------------      |A-2-2-2-2-2-2-2-2-4-4-4-4-4-4-4-4-
D-------------666-6-444-4      |D-2-2-2-2-2-2-2-2-4-4-4-4-4-4-4-4-

CHORUS:

e------------------------------------------------------------------
b------------------------------------------------------------------
g-----------------66666-6------------------------------------------
D-88888-8-66666-6-66666-6-44444-4-8-8-8-8-6-6-6-6-2222222222222222-
A-88888-8-66666-6-44444-4-44444-4-8-8-8-8-6-6-6-6-2222222222222222-
D-88888-8-66666-6---------44444-4-8-8-8-8-6-6-6-6-2222222222222222-

e------------------------------------------------------------------
b------------------------------------------------------------------
g-----------------66666-6------------------------------------------
D-88888-8-66666-6-66666-6-44444-4-8-8-8-8-6-6-6-6-2222222222222222-
A-88888-8-66666-6-44444-4-44444-4-8-8-8-8-6-6-6-6-2222222222222222-
D-88888-8-66666-6---------44444-4-8-8-8-8-6-6-6-6-2222222222222222-

VERSE:

                               |e---------------------------------
     (BASS GUITAR)             |b---------------------------------
G------------------------      |g---------------------------------
D------------------------ Then |D-2-2-2-2-2-2-2-2-4-4-4-4-4-4-4-4-
A-444-4-333-3------------      |A-2-2-2-2-2-2-2-2-4-4-4-4-4-4-4-4-
D-------------666-6-444-4      |D-2-2-2-2-2-2-2-2-4-4-4-4-4-4-4-4-

                               |e---------------------------------
     (BASS GUITAR)             |b---------------------------------
G------------------------      |g---------------------------------
D------------------------ Then |D-2-2-2-2-2-2-2-2-4-4-4-4-4-4-4-4-
A-444-4-333-3------------      |A-2-2-2-2-2-2-2-2-4-4-4-4-4-4-4-4-
D-------------666-6-444-4      |D-2-2-2-2-2-2-2-2-4-4-4-4-4-4-4-4-

Chorus:

e------------------------------------------------------------------
b------------------------------------------------------------------
g-----------------66666-6------------------------------------------
D-88888-8-66666-6-66666-6-44444-4-8-8-8-8-6-6-6-6-2222222222222222-
A-88888-8-66666-6-44444-4-44444-4-8-8-8-8-6-6-6-6-2222222222222222-
D-88888-8-66666-6---------44444-4-8-8-8-8-6-6-6-6-2222222222222222-

e------------------------------------------------------------------
b------------------------------------------------------------------
g-----------------66666-6------------------------------------------
D-88888-8-66666-6-66666-6-44444-4-8-8-8-8-6-6-6-6-2222222222222222-
A-88888-8-66666-6-44444-4-44444-4-8-8-8-8-6-6-6-6-2222222222222222-
D-88888-8-66666-6---------44444-4-8-8-8-8-6-6-6-6-2222222222222222-

e------------------
b------------------
g------------------
D-2222222222222222-
A-2222222222222222-
D-2222222222222222-

03:41
Section 3: I Don't Care
[ Tab from: http://www.guitartabs.cc/tabs/g/green_day/jesus_of_suburbia_tab_ver_4.html ]
e----------------------------------------------___________
b----------------------------------------------           |
g-------6-6-6-------6-6-6-------6-6-6----------           |
D-66-66-6-6-6-66-66-6-6-6-44-44-6-6-6-66666666-           |
A-66-66-4-4-4-66-66-4-4-4-44-44-4-4-4-66666666-           | These 2 parts
D-66-66-------66-66-------44-44-------66666666-           | are both played
                                                          | at the same  
e-------------------1---------2-2-2-2\1-------4~-         | time     
b---------2--2--2---------4\2-----------4\2/4----         | i.e. there    
g-1-1-1-1---------1-1-1-1------------------------         | are 2 guitars!!!
D------------------------------------------------         |  
A------------------------------------------------_________|
D------------------------------------------------

INTRO 2:

e----------------------------------------------
b----------------------------------------------
g-------6-6-6-------6-6-6-------6-6-6----------        x5
D-66-66-6-6-6-66-66-6-6-6-44-44-6-6-6-66666666-
A-66-66-4-4-4-66-66-4-4-4-44-44-4-4-4-66666666-
D-66-66-------66-66-------44-44-------66666666-

e-------|-----------------------------------------          
b-------|-----------------------------------------          
g-------|-----------------------------------------       x4  
D-4-6---|-11111111-11-11111111-11-11111111-11-7\6-          These are 11's
A-4-6---|-11111111-11-11111111-11-11111111-11-7\6-         not loads of 1's
D-4-6---|-11111111-11-11111111-11-11111111-11-7\6-
  I DON'T CAAAAAAAARE

VERSE:

                            |e-----
     (BASS GUITAR)          |b-----    All x 8
G---------------------      |g-----
D---------------------      |D-7\6-
A-4444-4-4444-4-4444-4 Then |A-7\6-
D---------------------      |D-7\6-

CHORUS:

e-------------------
b-------------------
g---------------6---       x 4
D-44444444-6666-6-6-
A-44444444-6666-4-6-
D-44444444-6666---6-

e-----------------------------------------              e---------------
b-----------------------------------------              b---------------
g-----------------------------------------    x4        g-6-6-6-6-666---
D-11111111-11-11111111-11-11111111-11-7\6-         Then D-6-6-6-6-666-6-
A-11111111-11-11111111-11-11111111-11-7\6-              A-4-4-4-4-444-6-
D-11111111-11-11111111-11-11111111-11-7\6-              D-------------6- 

05:20
Section 4: Dearly Beloved

e-----------------------------------
b-----------------------------------
g-----------------------------------
D-6-6-6-6-6-6-6-6-6-6-6-6-6-6-6-7\6-
A-6-6-6-6-6-6-6-6-6-6-6-6-6-6-6-7\6-
D-6-6-6-6-6-6-6-6-6-6-6-6-6-6-6-7\6-
  x x x x x x x x x x x x x x x

VERSE: 2 guitars (1 = Light Distortion, Palm Mute)
                 (2 = Heavy Distortion, Not Palm Muted)
GUITAR 1
e---------------------------------------------------------------------------
b-------------------------------------------------------------------------
g-------------------5-5-5-5-5-5-55-55-6-6-6-6-6-6-66-66-------------8-8-88-88
D-6-6-6-6-6-6-66-66-5-5-5-5-5-5-55-55-6-6-6-6-6-6-66-66-6-6-6-66-66-8-8-88-88
A-6-6-6-6-6-6-66-66-3-3-3-3-3-3-33-33-4-4-4-4-4-4-44-44-6-6-6-66-66-6-6-66-66
D-6-6-6-6-6-6-66-66-------------------------------------6-6-6-66-66----------
  x x x x x x xx xx x x x x x x xx xx x x x x x x xx xx x x x xx xx x x xx xx

GUITAR 2 (ONLY 1st,5th,6th,7th and 8th TIMES THROUGH)
e---------------------------------------------------------------------------
b---------------------------------------------------------------------------
g-------------------5---------------5-6---------------6-------------8-------
D-6---------------6-5---------------5-6---------------6-6---------6-8-------
A-6---------------6-3---------------3-4---------------4-6---------6-6-------
D-6---------------6-------------------------------------6---------6---------

06:30
Section 5: Tales Of Another Broken Home

e------  |                    
b------  |   (BASS GUITAR)                
g------  |G-----------------
D-7\6#-  |D-----------------
A-7\6#-  |A-----------------
D-7\6#-  |D-66-66-66-666-66-
         |                        x 4    
         |e-----------------
    OVER |b-----------------
    TOP  |g---------------6-
    OF   |D-6------------46-
    BASS |A-6------------44-
         |D-6------------4--

VERSE:

e-----------------
b-----------------
g---------------6-    x 8
D-66-66-66-666-46-
A-66-66-66-666-44-
D-66-66-66-666-4--

CHORUS:

e-------------------0-----------------------0-----
b-------------------0-----------------------0-----
g-6---6---6---8---8-0-8---6---6---6---8---8-0-8---  x 2
D-6-6-6-6-6-6-8-6-8-6-8-6-6-6-6-6-6-6-8-6-8-6-8-6-
A-4-6-4-6-4-6-6-6-6-6-6-6-4-6-4-6-4-6-6-6-6-6-6-6-
D---6---6---6---6---6---6---6---6---6---6---6---6-

VERSE:

e-----------------
b-----------------
g---------------6-    x 8
D-66-66-66-666-46-
A-66-66-66-666-44-
D-66-66-66-666-4--

CHORUS:

e-------------------0-----------------------0-----
b-------------------0-----------------------0-----
g-6-6-6---6---8---8-0-8---6---6---6---8---8-0-8---   x 2
D-6-6-6-6-6-6-8-6-8-6-8-6-6-6-6-6-6-6-8-6-8-6-8-6-
A-4-6-4-6-4-6-6-6-6-6-6-6-4-6-4-6-4-6-6-6-6-6-6-6-
D---6---6---6---6---6---6---6---6---6---6---6---6-

e----------------------------------
b----------------------------------
g---------------6----------------6-
D-66-66-66-666-46--66-66-66-666-46-   x 4
A-66-66-66-666-44--66-66-66-666-44-
D-66-66-66-666-4---66-66-66-666-4--

e-------------------------------------------------
b-------------------------------------------------
g-6---6---6---8---8---8---6---6---6---8---8---8---
D-6-6-6-6-6-6-8-6-8-6-8-6-6-6-6-6-6-6-8-6-8-6-8-6-
A-4-6-4-6-4-6-6-6-6-6-6-6-4-6-4-6-4-6-6-6-6-6-6-6-
D---6---6---6---6---6---6---6---6---6---6---6---6-

Keyboard part transcribed for Guitar:

e-1-----------3-----------4---------1---
b-2-----------4-----------1---------2---
g-1-----------3-----------1---------1---
D-3-----------5-----------1---------3---
A-4-----------6-----------x---------4---
D-x-----------x-----------x---------x---
  I dont feel any shame i wont apologies

e-1-----------------3----------------4-
b-2-----------------4----------------1-
g-1-----------------3----------------1-
D-3-----------------5----------------1-
A-4-----------------6----------------x-
D-x-----------------x----------------x-
    When there aint no where you can go

e-1---------3------------------4---------------1----
b-2---------4------------------1---------------2----
g-1---------3------------------1---------------1----
D-3---------5------------------1---------------3----
A-4---------6------------------x---------------4----
D-x---------x------------------x---------------x----
   Running away from pain when youve been victimised

e-1------------3------------
b-2------------4------------
g-1------------3------------
D-3------------5------------
A-4------------6------------
D-x------------x------------ 
   Tales from another broken

e----------------------------------
b----------------------------------
g---------------6----------------6-
D-66-66-66-666-46--66-66-66-666-46-   x 2
A-66-66-66-666-44--66-66-66-666-44-
D-66-66-66-666-4---66-66-66-666-4--
  Hooommmmmmmmmmme

e---------------------------------
b---------------------------------
g--------------6--------------6---
D-66-66-66-66-46-66-66-66-66-46-6-
A-66-66-66-66-44-66-66-66-66-44-6-
E-66-66-66-66-4--66-66-66-66-4--6-

Well, thats it! The whole of "Jesus of Suburbia" tabbed out for you to play. So
dont be an utter bastard and print it off without giving me a rating, will you!

 - DemonRiffs -
Comments