Green Day - Jar Chords & Tabs

 

Jar Chords & Tabs

Green Day Chords & Tabs

Version: 1 Type: Tab 1 rating
1 star 2 stars 3 stars 4 stars 5 stars
comments

Jar Tab

   
J.A.R.
Green Day
Angus Soundtrack (1995)
Lyrics: Mike Dirnt
Music: Green Day
Tuning: 1/2 step down (sounds a semitone lower than written here)
Notes: Great 3-chord song, should've been on one of the albums.

h = hammer-on
p = pull-off
b = bend
/ = slide up
\ = slide down
5 = power chord

Bass Riff
G|-----7-------7-------7-------7---------------------------------|
D|-5-5---5-------------------------------------------------------|
A|---------5-5---5---------5-5---5-------------------------------|
E|-----------------5-5---5---------------------------------------|

Intro
               D5 A5
e|---------------------------------------------------------------|
B|---------------------------------------------------------------|
G|-(bass riff)-7------(verse chords x2)--------------------------|
D|-------------7--7----------------------------------------------|
A|-------------5--7----------------------------------------------|
E|----------------5----------------------------------------------|

Verse
   G5   A5   G5   D5 A5  (x4)
e|---------------------------------------------------------------|
B|---------------------------------------------------------------|
G|----------------7----------------------------------------------|
D|-5----7----5----7--7-------------------------------------------|
A|-5----7----5----5--7-------------------------------------------|
E|-3----5----3-------5-------------------------------------------|
[ Tab from: http://www.guitartabs.cc/tabs/g/green_day/jar_tab.html ]
Chorus
   G5   D5   A5(x2)(G5  D5  A5  D5 x2 on 1st chorus, x4 on others)
e|---------------------------------------------------------------|
B|---------------------------------------------------------------|
G|------7---------------7-------7--------------------------------|
D|-5----7----7------5---7---7---7--------------------------------|
A|-5----5----7------5---5---7---5--------------------------------|
E|-3---------5------3-------5------------------------------------|

Bridge
   C5   G5   D5   A5   C5   G5   D5   D5 A5
e|---------------------------------------------------------------|
B|---------------------------------------------------------------|
G|-5---------7---------5---------7----7--------------------------|
D|-5----5----7----7----5----5----7----7--7-----------------------|
A|-3----5----5----7----3----5----5----5--7-----------------------|
E|------3---------5---------3------------5-----------------------|

Solo (played over verse chords x2)
e|-----------------------------7-5-7-5---------------------------|
B|-8--8--8-8-8-8-7-5-7-8-8-8-8---------8-8-8-8-7-5-5b------------|
G|------------------------------------------------------7--------|
D|---------------------------------------------------------------|
A|---------------------------------------------------------------|
E|---------------------------------------------------------------|


Order

Intro
Verse 1
Chorus
Verse 2
Chorus
Bridge
Solo
Chorus
Outro (No guitar, only bass riff)

Comments