Green Day - Jaded Chords & Tabs

 

Jaded Chords & Tabs

Green Day Chords & Tabs

Version: 3 Type: Tab 0 ratings
1 star 2 stars 3 stars 4 stars 5 stars
comments

Jaded Tab

Green Day Jaded
From the album Insomniac and International Superhits
Track 11 and 11
Tabbed by Liam
Email: guitar_rocker_47@hotmail.com
Tuning standard 

Intro
e|-----------------------------------------------------------------------------|
B|-----------------------------------------------------------------------------|
G|-------------6---------------------------------------------------------------|  
D|-6-6-6\4-4-4-6---------------------------------------------------------------|  
A|-6-6-6\4-4-4-4---------------------------------------------------------------|
E|-4-4-4\2-2-2-----------------------------------------------------------------|

Verse 
e|----------------|     |------------------------------------------------------|
B|----------------|     |------------------------------------------------------|
G|-------------6--|     |------------------------------------------------------|
D|-6-6-6\4-4-4-6--| x7  |-6-6-6-6-6-6------------------------------------------|
A|-6-6-6\4-4-4-4--|     |-6-6-6-6-6-6------------------------------------------|
E|-4-4-4\2-2-2----|     |-4-4-4-4-4-4------------------------------------------|
[ Tab from: http://www.guitartabs.cc/tabs/g/green_day/jaded_tab_ver_3.html ]
Chorus
e|-----------------------------------------------------------------------------|
B|-----------------------------------------------------------------------------|
G|-----------6-6-6-6-6-6-6-6-6-6-6-6--------------6--------------6--6-6-6-6-6--|
D|--6-6-6-6--6-6-6-6-6-6-6-6-6-6-6-6--6-6-6\4-4-4-6--6-6-6\4-4-4-6--6-6-6-6-6--|
A|--6-6-6-6--4-4-4-4-4-4-4-4-4-4-4-4--6-6-6\4-4-4-4--6-6-6\4-4-4-4--4-4-4-4-4--|
E|--4-4-4-4---------------------------4-4-4\2-2-2----4-4-4\2-2-2---------------|

e|-----------------------------------------------------------------------------|
B|-----------------------------------------------------------------------------|
G|-6-6-6-6-6-6-6-8-8-8-8-8-8-8-8-8-8-8-8---------------------------------------|
D|-6-6-6-6-6-6-6-8-8-8-8-8-8-8-8-8-8-8-8---------------------------------------|
A|-4-4-4-4-4-4-4-6-6-6-6-6-6-6-6-6-6-6-6---------------------------------------|
E|-----------------------------------------------------------------------------|

Order

Intro x2 with one guitar then x2 with band
Verse 1
Chorus
Verse 2
Chorus
Verse chords x4 (with no lyrics)
Chorus
Verse chords x4 
End on 

e|--------|
B|--------|
G|--------|
D|---6----|
A|---6----|
E|---4----|

Lyrics

(Verse 1)
Somebody keep my balance
I think I'm falling off
Into a state of regression
The expiration date			
Rapidly coming up
It's leaving me behind to rank

(Chorus)
Always move forward
Going straight will get you nowhere
There is no progress			
Evolution killed it all
I found my place in nowhere

(Verse 2)
I'm taking one step sideways
Leaning with my crutch
Got a fucked-up equilibrium
Countdown from 9 to 5			
Hooray we're gonna die
Blessed into our extinction

(Chorus)
(Bridge)
(Chorus)
Comments