Green Day - Jaded Chords & Tabs

 

Jaded Chords & Tabs

Green Day Chords & Tabs

Version: 5 Type: Bass Tab

Jaded Bass Tab

   
-------------------------------------------------------------------------------
JADED-GREEN DAY
INSOMNIAC
1995
-------------------------------------------------------------------------------

Tabbed By : Punkrocker6792
e-mail: ChrisKrochak@aol.com

Tuning: EADG

INTRO
G|--------------------------------------------------------------------------|
D|--------------------------------------------------------------------------|
A|-------4-------4----------------------------------------------------------|
E|--44x22-4-44x22-4---------------------------------------------------------|
[ Tab from: http://www.guitartabs.cc/tabs/g/green_day/jaded_btab_ver_5.html ]
VERSE
G|------------------------------------------------------------------------|
D|------------------------------------------------------------------------|
A|--------4--------4--------4--------4--4444444---------------------------|x2
E|--444422-2-444422-2-444422-2-444422-2-----------------------------------|

CHORUS
G|--------------------------------------------------------------------------|
D|--------------------------------------------------------------------------|
A|-44444444444444-----4-444444444444444-----4-44444444----------------------|
E|---------------44422-2---------------44422-2------------------------------|

END SONG ON G#

| /  slide up
| \  slide down
| h  hammer-on
| p  pull-off
| ~  vibrato
| +  harmonic
| x  Mute note
===============================================================================