Green Day - Jaded Chords & Tabs

 

Jaded Chords & Tabs

Green Day Chords & Tabs

Version: 4 Type: Bass Tab 0 ratings
1 star 2 stars 3 stars 4 stars 5 stars
comments

Jaded Bass Tab

   
This song is pretty easy to play, but its fast. I would definately suggest a pick
(especially since thats what mike uses anyway).

Tuning: Standard(E,A,D,G)

Intro/Verse
G-------------------------------------|x9
D-------------------------------------|
A--------44---------------------------|
E-44-422------------------------------|

Pre-Chorus
G-----------------|x1
D-----------------|
A-----------------|
E-44444444--------|
[ Tab from: http://www.guitartabs.cc/tabs/g/green_day/jaded_btab_ver_4.html ]
Chorus
G----------------------------------------------------------------|
D----------------------------------------------------------------|
A-4444444444444444-----------------------------------------------|\
E------------------44-42-2-2-44-42-2-2---------------------------| \
                                                                    x1
G----------------------------------------------------------------| /
D----------------------------------------------------------------|/
A-4444444444444444-666666666666-4-3-2----------------------------|
E----------------------------------------------------------------|

Verse 

Chorus 

For the Bridge, just repeat the Intro/Verse riff until you come back to the chorus.

Repeat Chorus

Outro
G-------------------------------------|x3
D-------------------------------------|
A--------44---------------------------|
E-44-422------------------------------| 

G-------------------------------------|
D-------------------------------------|
A-------------------------------------|
E-44-422-4----------------------------|

That's it. Have fun and please rate this.
Comments