Green Day - J A R Chords & Tabs

 

J A R Chords & Tabs

Green Day Chords & Tabs

Version: 3 Type: Chords 0 ratings
1 star 2 stars 3 stars 4 stars 5 stars
comments

J A R Chords

   
Intro

D A G A G
D A G A G
DA

Verse

e|---------------------7-5-7-------------------
B|-8-8-8-8-8-8-7-5-7-8------8-8-8-8-7-5-5^-----
G|-----------------------------------------7--- X 2
D|---------------------------------------------
A|---------------------------------------------
E|---------------------------------------------

Chorus
[ Tab from: http://www.guitartabs.cc/tabs/g/green_day/j_a_r_crd_ver_3.html ]
G                 D
And I Think Its Alright
                A 
That I Do As I like
                          G    D
Cuz Thats The Way I Wanna Live
         A                 G      DAD (X2)
And So I Give And Im Still Given 

(Verse, Chorus)

Solo

e|---------------------7-5-7-------------------
B|-8-8-8-8-8-8-7-5-7-8------8-8-8-8-7-5-5^-----
G|-----------------------------------------7--- X 2
D|---------------------------------------------
A|---------------------------------------------
E|---------------------------------------------


To play the verse using chords it goes

G A G D A G
A G D A
G A G D A G
A G D A
Comments