Green Day - In The End Chords & Tabs

 

In The End Chords & Tabs

Green Day Chords & Tabs

Version: 2 Type: Tab 0 ratings
1 star 2 stars 3 stars 4 stars 5 stars
comments

In The End Tab

   
Song: In The End
Artist: Green Day
Album: Dookie
Tabbed by: Darin Oulaghan (that_guitarist@hotmail.com)
questions and comments welcome!

All guitars tuned down 1/2 step

Chords:

   A5   G5   D5   E5   F#5
|--x----x----x----x----x--------|
|--x----x----x----x----x--------|
|--x----x----7----9----x--------|
|--7----5----7----9----4--------|
|--7----5----5----7----4--------|
|--5----3----x----x----2--------|

Verse:

     A5            G5        A5              G5
 All brawn and no brains and all those nice things,

            A5      G5           A5      G5
 yeah, you finally got what you want

  A5         G5             A5            G5
 Someone to look good with and light your cigarette
[ Tab from: http://www.guitartabs.cc/tabs/g/green_day/in_the_end_tab_ver_2.html ]
 A5            G5         A5
 Is this what you really want?


Chorus:

D5             E5
 I figured out   what your all about

        A5                      F#5
 And i dont think i like what i see

        D5
 So  I hope i wont be there

    E5                    A5    G5   A5   G5
 in the end if you come around


Verse 2

Chorus


Interlude - play 15 times - chord played under the riff is A5

|----------------------------|
|----------------------------|
|----------------------------|
|----------------------------|
|------4-----------5---------|
|--5-------5---3-------3-----|

Chorus

Outro:

A5   G5   A5


Verse 2 lyrics:

Long will he last before hes a creep in the past
and your alone once again
Will you pop up again and be my special friend
til the end and when will that be?
Comments