Green Day - In The End Chords & Tabs

 

In The End Chords & Tabs

Green Day Chords & Tabs

Version: 3 Type: Bass Tab 0 ratings
1 star 2 stars 3 stars 4 stars 5 stars
comments

In The End Bass Tab

   
Song: In the End
Artist: Green Day
Album: Dookie
Tabbed By: Scott Sherman
Tune: E to Eb

Verse-7x
G------------------|
D------------------|
A------------------|
E-5-55-5553-33-333-|

Chorus  X=Stop
G--------------------------------------------------------------------X
D------------------------------------------------7------7------------X
A------------45-55-5555-55-5557-77-7777-77-777-----------------------X
E-5-55-555-57---------------------------------5-5-5555-5-5552-22-2222X

X----------------------------------|
X----------------------------------|
X-5-55-5555-55-5557-77-7777-77-777-|
X----------------------------------|

Pre-Verse
G---------------------------------|
D----7---------------7------------|
A---------------------------------|
E-5-5--5553-33-3335-5—5553-33-333-|

THEN Play Verse-7x, Chorus, Pre-Verse-2x, then…
[ Tab from: http://www.guitartabs.cc/tabs/g/green_day/in_the_end_btab_ver_3.html ]
Bridge-3x
G----------------------------------------|
D----------------54-----------------54---|
A---4----5----4----45--4----5----4----45-|
E-5---53---35---5----5---53---35---5-----|

Bridge-Out
G--------------------------------|
D--------------------------------|
A---4----5----4----5----4----5---|
E-5---53---35---53---35---53---3-|

Chorus2
G---------------------------------------------------------------------X
D-------------------------------------------/11---7------7------------X
A--------------45-55-5555-55-5557-77-7777-77--------------------------X
E-5555555555557--------------------------------5-5-5555-5-5552-22-2222X

X----------------------------------|
X----------------------------------|
X-5-55-5555-55-5557-77-7777-77-777-|
X----------------------------------|

THEN Play Pre-Verse-1x then…


Outro
G-------------------|
D----7--------------|
A-------------------|
E-5-5--5553-33-33-5-|
END
Comments or corrections mail me at shermdog17@yahoo.com
Check out my band at www.geocities.com/thecause_ifanything/punk.html
Comments