Green Day - I Was There Chords & Tabs

 

I Was There Chords & Tabs

Green Day Chords & Tabs

Version: 1 Type: Bass Tab 0 ratings
1 star 2 stars 3 stars 4 stars 5 stars
comments

I Was There Bass Tab

   
I noticed that there were mistakes in the outro,
so I corrected them. Suggestions -> mfgj@zipmail.com.br


I Was There
Green Day


Intro:
------

G----------------------------------------
D--------------------------4-3-1---------
A-4-4-4-4-4-4-4-4-4-4--2-2-------4-2--2/4
E----------------------------------------

G---------------------------------
D----------------------------6-4--
A-4-4-4-4-4-4-4-4-4-4--4-4/6-----4
E---------------------------------

G------------------------
D----------4-3-1---------
A-4/2--2-2-------4-2--2/4
E------------------------

Verse:
------

"Lookin back upon my..."
G----------------------------------------
D----------------------------------------  repeat 3x
A-4-4-4-4-4-4-4-4-4-4-2-2-2-2-2-2-2-2-2-2
E---------------------------------------- 

"but each one was a memory..."
G-------------------
D---------------6-4-
A-4-4-4-4-4-4/6----4
E-------------------

G------------------------
D----------4-3-1---------
A-4/2--2-2-------4-2--2/4
E------------------------

Chorus:
-------

"I looked in to the past..."
G--------------------------------
D-------------------------------- 
A--------4-4-4-4---------4-4-4-4-
E-2-2-2-2--------2-2-2-2---------
[ Tab from: http://www.guitartabs.cc/tabs/g/green_day/i_was_there_btab.html ]
G--------------------------------------------
D--------------------------------------------
A-4/2-2-2-2-2-2-2-2-2-2-2-4-4-4-4-4-4-4-4-4-4 
E--------------------------------------------

repeat 2x

Then back to intro
Then verse
Then chorus
Then intro again

then....
G-------------------
D-------------------  repeat 2x
A-4-4--4-4--2-2--2-2
E-------------------

"lookin back.."
G-------------------
D-------------------
A-4-4-4-4--2-2-2-2-2
E-------------------

Then verse
Then chorus

Outro:
------

G--------------4h6-6
D---------4-4h6-----
A-4-4-4-4-----------
E-------------------

G-------------------
D---------------6-4-
A-4-4-4-4-4-4/6----4
E-------------------

G-------------------
D-----4-3-1---------
A-2-2-------4-2--2/4
E-------------------

G-----------6-6-6---
D-------------------
A-4-4-4-4-----------
E-------------------

G--------------4h6-6
D---------4-4h6-----
A-4-4-4-4-----------
E-------------------

G-------------------
D---------------6-4-
A-4-4-4-4-4-4/6----4
E-------------------

G-------------------
D-----4-3-1---------
A-2-2-------4-2--2/4
E-------------------

G-----------6-6-6---
D-------------------
A-4-4-4-4-----------
E-------------------


G-------------------
D-4~~~~-------------
A-------------------
E-------------------

Comments