Green Day - I Want To Be Alone Chords & Tabs

 

I Want To Be Alone Chords & Tabs

Green Day Chords & Tabs

Version: 1 Type: Tab 0 ratings
1 star 2 stars 3 stars 4 stars 5 stars
comments

I Want To Be Alone Tab

   
Artist-Green Day
Song Title-I Want To Be Alone
From the Album-1039/SMOOTHED OUT SLAPPY HOURS
Transcription by- Itai Franklin

INTRO/VERS 
e|----------------------------------------------------|
B|----------------------------------------------------|
G|-----------------------------------7--9--7--9--7--9-|
D|-----0-0-7-0-0-5-0-0-7-0-0-5-0-0-7-7--9--7--9--7--9-|
A|-0-0-------------------------------5--7--5--7--5--7-|
E|----------------------------------------------------|

CHORUS
e|----------------------------------------------------------------------------------------------
B|----------------------------------------------------------------------------------------------
G|-2-2-2-2-2-4-4-4-4-4-4-4-9-9-9-7-7-7-7-7-7-2-2-2-2-2-4-4-4-4-4-4-4-9-9-9-7-7-7-7-7-7-2-2-2-2-2
D|-2-2-2-2-2-4-4-4-4-4-4-4-9-9-9-7-7-7-7-7-7-2-2-2-2-2-4-4-4-4-4-4-4-9-9-9-7-7-7-7-7-7-2-2-2-2-2
A|-0-0-0-0-0-2-2-2-2-2-2-2-7-7-7-5-5-5-5-5-5-0-0-0-0-0-2-2-2-2-2-2-2-7-7-7-5-5-5-5-5-5-0-0-0-0-0
E|----------------------------------------------------------------------------------------------


-----------------------------------------------------------------------------------------------
-----------------------------------------------------------------------------------------------
4-4-4-4-4-4-4-9-9-9-7-7-7-7-7-7-2-2-2-2-2-4-4-4-4-4-4-4-----------------------------------9--7-
4-4-4-4-4-4-4-9-9-9-7-7-7-7-7-7-2-2-2-2-2-4-4-4-4-4-4-4-----0-0-7-0-0-5-0-0-7-0-0-5-0-0-7-9--7-
2-2-2-2-2-2-2-7-7-7-5-5-5-5-5-5-0-0-0-0-0-2-2-2-2-2-2-2-0-0-------------------------------7--5-
-----------------------------------------------------------------------------------------------

---------------|
---------------|
-9--7--9--7--9-|
-9--7--9--7--9-|
-7--5--7--5--7-|
---------------|

SOLO RIFFS
I did the Number 3 solo so shity...
[ Tab from: http://www.guitartabs.cc/tabs/g/green_day/i_want_to_be_alone_tab.html ]
SOLO RIFF1
e|---------------------------------------------|
B|-12----12---------------------------12-12----|
G|-------------9-11-12----12----12----------11-|
D|----12----12---------12----12----12----------|
A|---------------------------------------------|
E|---------------------------------------------|

SOLO RIFF2
e|-------------12-------------------------------|
B|-------12----------------------12-12-12-12----|
G|-12----------------12----12-12----------------|
D|----12----12----12----12-------------------14-|
A|----------------------------------------------|
E|----------------------------------------------|

SOLO RIFF3 
Well,this is fast,and i KNOW that this ain't right,really ain't right... but Whatever.
e|---------------------------------------------------------------------------------------------
B|-12-12-12-12^--12-14-16--16-16^--16-16-16p14----------16-16-16p14----------19-19-19-17-17-17-
G|---------------------------------------------16-13-16-------------16-13-16-------------------
D|---------------------------------------------------------------------------------------------
A|---------------------------------------------------------------------------------------------
E|---------------------------------------------------------------------------------------------

----------------------------------------------------------------------------------------------|
16-16-16-14-14-14--------------------------------------12-12-12-12-12-12-12-12-12-12-12-12-12-|
------------------16-16-14-14-----------------------------------------------------------------|
---------------------------16-16-14-14--------------------------------------------------------|
---------------------------------------16-16-14-14--------------------------------------------|
---------------------------------------------------16^----------------------------------------|

METAL UP YOUR ASS!!!







Comments