Green Day - Homecoming Chords & Tabs

 

Homecoming Chords & Tabs

Green Day Chords & Tabs

Version: 1 Type: Tab 6 ratings
1 star 2 stars 3 stars 4 stars 5 stars
comments

Homecoming Tab

   
The death of St. Jimmy

riff 1 x6
e|---------------------------------|
b|---------------------------------|
g|---------------------------------|
d|------------7-6------------------|
a|7-7-2-2-2-2-5-4-7-x-x-x----------|
e|5-5-0-0-0-0-----5-x-x-x----------|

riff 2 x2 but on the 1st time theres a little didly phill thing but im not sure wot it is.
e|----------------------------|
b|----------------------------|
g|----------------------------|
d|----------------------------|
a|2-2-2-2-2-2-7-7-7-7---------|
e|0-0-0-0-0-0-5-5-5-5---------|

riff 3....im not certain on this bit, but i'll tab it neway.
e|--------------------------------------------------------------------------|
b|--------------------------------------------------------------------------|
g|--------------------------------------------------------------------------|
d|7-7-7-7-7-7-9-9-9-7-7-7---------------------------------------------------|
a|5-5-5-5-5-5-7-7-7-5-5-5-2-2-2-2-2-2-2-2-2-2-2-2-2-2-2-2-------------------|
e|------------------------0-0-0-0-0-0-0-0-0-0-0-0-0-0-0-0-------------------|

riff 4
e|---------------------------------------|
b|---------------------------------------|
g|---------------------------------------|
d|-----7---------------7-6-7-------------|
a|7----5----2-----7----5-4-5----2--------|
e|5---------0-----5-------------0--------|

riff 5   x 2
e|-------------------------------------------------------------------------------------|
b|-------------------------------------------------------------------------------------|
g|-------------------------------------------------------------------------------------|
d|----------------------------7-7------------------------------------------------------|
a|7-7-7-7-7-7-7-7-7-7-7-7-7-7-5-5-2-2-2-2-2-2-2-2-2-2-2-2-2-2-2-2----------------------|
e|5-5-5-5-5-5-5-5-5-5-5-5-5-5------0-0-0-0-0-0-0-0-0-0-0-0-0-0-0-0---------------------|

e|--------------------------------------------------------------------------|
b|--------------------------------------------------------------------------|
g|--------------------------------------------------------------------------|
d|----------------7--6--7---------------------------------------------------|
a|7-7-7-7-7-7-7-7-5--4--5-2-2-2-2-2-2-2-2-2-2-2-2-2-2-2-2-------------------|
e|5-5-5-5-5-5-5-5---------0-0-0-0-0-0-0-0-0-0-0-0-0-0-0-0-------------------|

e|-------------------------------------------------------------------------------------|
b|-------------------------------------------------------------------------------------|
g|-------------------------------------------------------------------------------------|
d|----------------------------7-7------------------------------------------------------|
a|7-7-7-7-7-7-7-7-7-7-7-7-7-7-5-5-2-2-2-2-2-2-2-2-2-2-2-2-2-2-2-2----------------------|
e|5-5-5-5-5-5-5-5-5-5-5-5-5-5-----0-0-0-0-0-0-0-0-0-0-0-0-0-0-0-0----------------------|

e|--------------------------------------------------------------------------|
b|--------------------------------------------------------------------------|
g|--------------------------------------------------------------------------|
d|7-7-7-7-7-7-7-7--7--6--7--------------------------------------------------|
a|5-5-5-5-5-5-5-5--5--4--5-2-2-2-2-2-2-2-2-2-2-2-2-2-2-2-2------------------|
e|-------------------------0-0-0-0-0-0-0-0-0-0-0-0-0-0-0-0------------------|

riff 6 x3
e|--------------------------------------------------------------------------|
b|--------------------------------------------------------------------------|
g|--------------------------------------------------------------------------|
d|11-11-11-11-11--9---------------------------------------------------------|
a|9--9--9--9--9---7---7-7-7-7-7-7-7-7-7-7-7-7-7-7-7-7-----------------------|
e|--------------------5-5-5-5-5-5-5-5-5-5-5-5-5-5-5-5-----------------------|

riff 7
e|--------------------------------------------------------------------------|
b|--------------------------------------------------------------------------|
g|--------------------------------------------------------------------------|
d|7-7-7-7-7-7-7-7--7--6--7--------------------------------------------------|
a|5-5-5-5-5-5-5-5--5--4--5-2-2-2-2-2-2-2-2-2-2-2-2-2-2-2-2------------------|
e|-------------------------0-0-0-0-0-0-0-0-0-0-0-0-0-0-0-0------------------|

riff 5, 6 and 7 again.


East 12 St.

riff 1 x12
e|---------------------------------|
b|---------------------------------|
g|---------------------------------|
d|7--------------------------------|
a|5-7-5-7-x-x-7-x-x-7-7------------|
e|--5-3-5-x-x-5-x-x-5-5------------|

riff 2 x4
e|------------------------------------------------------------------|
b|------------------------------------------------------------------|
g|------------------------------------------------------------------|
d|7-7-7-7-7-7-7-7-9-9-9-9-7-7-7-7--7-7-7-7-7-7-7-7------------------|
a|5-5-5-5-5-5-5-5-7-7-7-7-5-5-5-5--5-5-5-5-5-5-5-5-7-7-7-7-7-7-7-7--|
e|-------------------------------------------------5-5-5-5-5-5-5-5--|

riff 3 x4
e|-------------------------------------------------------|
b|7-7-7-7-7--8--7-----7----------------------------------|
g|7-7-7-7-7--7--7--9--7----------------------------------|
d|7-7-7-7-7--7--7--7--7---7-7-7-7-------7----------------|
a|5-5-5-5-5--5--5--5--5---5-5-5-5-7-5-7-5----------------|
e|--------------------------------5-7-5------------------|

riff 4 x4
e|-----------------------------------------------------------------|
b|-----------------------------------------------------------------|
g|-----------------------------------------------------------------|
d|5-5-5-5-5-5-5-5-5-5-5-5-5-5-5-5----------------------------------|
a|3-3-3-3-3-3-3-3-3-3-3-3-3-3-3-3-7-7-7-7-7-7-7-7-7-7-7-7-7-7-7-7--|
e|--------------------------------5-5-5-5-5-5-5-5-5-5-5-5-5-5-5-5--|

riff 5 x4
e|----------------------------------------------|
b|----------------------------------------------|
g|----------------------------------------------|
d|5-5-5-5-5-5-5-5-------------------------------|
a|3-3-3-3-3-3-3-3-7-7-7-7-7-7-7-7---------------|
e|----------------5-5-5-5-5-5-5-5---------------|

e|----------------------------------------------|
b|----------------------------------------------|
g|----------------------------------------------|
d|7---5-----------7--7--7----5-7----7-----------|
a|5---3---5---7---5--5--5--7-3-5----5-----------|
e|--------3---5------------5--------------------|


Nobody likes you!

first guitar for riff 1
e|------------------------|
b|------------------------|
g|------------------------|
d|7-7-7-7-7-7-7-7---------|   just keep playin this chord till the singing starts
a|5-5-5-5-5-5-5-5---------|
e|------------------------|
[ Tab from: http://www.guitartabs.cc/tabs/g/green_day/homecoming_tab.html ]
second guitar for riff 1
e|-------------------------------------------|
b|19-----17--15--17--19--19--15--------------|
g|-------------------------------------------|
d|-------------------------------------------|
a|-------------------------------------------|
e|-------------------------------------------|

riff 2 x4
e|--------------------------------------------------------------------|
b|--------------------------------------------------------------------|
g|--------------------------------------------------------------------|
d|7-7-7-7-7-7---------------------------------------------------------|
a|5-5-5-5-5-5-7-7-7-7-7-7-5-5-5-5-5-5-7-7-7-7-7-7---------------------|
e|------------5-5-5-5-5-5-3-3-3-3-3-3-5-5-5-5-5-5---------------------|

riff 3 x3
e|---------------------------------|                          e|-------------------------|
b|---------------------------------|                          b|-------------------------|
g|---------------------------------| after thrid time it goes g|-------------------------|
d|---------------------------------|                          d|7-7-7-7-7-7-7-7-7-7-7-7--|
a|---------5-5-5-5-5-5-7-7-7-7-7-7-|                          a|5-5-5-5-5-5-5-5-5-5-5-5--|
e|---------3-3-3-3-3-3-5-5-5-5-5-5-|                          e|-------------------------|

riff 2 again x4


e|-------------------------|
b|-------------------------|
g|-------------------------|
d|7----------9-------------|
a|5----------7-------------|
e|-------------------------|


Rock and Roll Girlfreind

riff 1 x3
e|-----------------------------------------------------------------|
b|-----------------------------------------------------------------|
g|-----------------------------------------------------------------|
d|--------------------------------7-7-7-7-7-7-7-7-7-7-7-7-7-7-7-7--|
a|7-7-7-7-7-7-7-7-7-7-7-7-7-7-7-7-5-5-5-5-5-5-5-5-5-5-5-5-5-5-5-5--|
e|5-5-5-5-5-5-5-5-5-5-5-5-5-5-5-5----------------------------------|

e|-----------------------------------------------------------------|
b|-----------------------------------------------------------------|
g|-----------------------------------------------------------------|
d|--------------------------------9-9-9-9-9-9-9-9-9-9-9-9-9-9-9-9--|
a|7-7-7-7-7-7-7-7-7-7-7-7-7-7-7-7-7-7-7-7-7-7-7-7-7-7-7-7-7-7-7-7--|
e|5-5-5-5-5-5-5-5-5-5-5-5-5-5-5-5----------------------------------|

riff 2
e|-----------------------------------------------------------------|
b|-----------------------------------------------------------------|
g|-----------------------------------------------------------------|
d|--------------------------------7-7-7-7-7-7-7-7-7-7-7-7-7-7-7-7--|
a|7-7-7-7-7-7-7-7-7-7-7-7-7-7-7-7-5-5-5-5-5-5-5-5-5-5-5-5-5-5-5-5--|
e|5-5-5-5-5-5-5-5-5-5-5-5-5-5-5-5----------------------------------|

e|----------------------------------------------------------------------------------|
b|----------------------------------------------------------------------------------|
g|----------------------------------------------------------------------------------|
d|--------------------------------------------9-9-9-9-9-9-9-9-9-9-9-9-9-------------|
a|7-7-7-7-7-7-7-7-7-7-7-7-7-7-7-7-7-7-7-7-7-7-7-7-7-7-7-7-7-------------------------|
e|5-5-5-5-5-5-5-5-5-5-5-5-5-5-5-5---------------------------------------------------|

e|
b|-----------------------------------------------------------------------------------|
g|-----------------------------------------------------------------------------------|
d|-----------------------------------------------------------------------------------|
a|5-5-5-7-7-7-7-5-5-5-7-7-7-7-5-5-5-7-7-7-7-5-5-5-7---7---7-7------------------------|
e|3-3-3-5-5-5-5-3-3-3-5-5-5-5-3-3-3-5-5-5-5-3-3-3-5---5---5-5------------------------|


We're Coming Home Again

riff 1 x4
e|------------------------------------------------------|
b|------------------------------------------------------|
g|------------------------------------------------------|
d|7-7-x-x-x-7-7-x-x-x-----------------------------------|
a|5-5-x-x-x-5-5-x-x-x-9-9-x-x-x-5-x-7-x-----------------|
e|--------------------7-7-x-x-x-3-x-5-x-----------------|

then theres no guitar for a bit exept for this is the middle
e|------|
b|------|
g|------|
d|------|
a|--5-7-|
e|--3-5-|

riff 2
e|---------------------------------------------------------------------------|
b|---------------------------------------------------------------------------|
g|---------------------------------------------------------------------------|
d|7--------------------------------------------------------------------------|
a|5-7---5--5--5-5-5-5--7--7--7-7-7-7--5--5--5-5-5-5--7--7--------------------|
e|--5---3--3--3-3-3-3--5--5--5-5-5-5--3--3--3-3-3-3--5--5--------------------|

e|-------------------------------------------------------------------------------------|
b|-------------------------------------------------------------------------------------|
g|-------------------------------------------------------------------------------------|
d|7---------------------------------------------------9-9-9-9-9-9-9-9-9-9-9-9-9-9-9-9--|
a|5-7---5--5--5-5-5-5--7--7--7-7-7-7--9-9-9-9-9-9-9-9-7-7-7-7-7-7-7-7-7-7-7-7-7-7-7-7--|
e|--5---3--3--3-3-3-3--5--5--5-5-5-5--7-7-7-7-7-7-7-7----------------------------------|

riff 3 x2
e|----------------------------------------------|
b|----------------------------------------------|
g|----------------------------------------------|
d|7-7-7-7---------------------------------------|
a|5-5-5-5-5-5-5-5-7-7-7-7-7-7-7-7---------------|
e|--------3-3-3-3-5-5-5-5-5-5-5-5---------------|

e|-------------------------------------------------|
b|-------------------------------------------------|
g|-------------------------------------------------|
d|7-7-7-7-7-7-7-7-7-7-7-7-7-7-7-7-7-7-7-7-7-7-7-7--|   let the last note ring
a|5-5-5-5-5-5-5-5-5-5-5-5-5-5-5-5-5-5-5-5-5-5-5-5--|
e|-------------------------------------------------|

riff 4 let all these notes ring
e|--------------------------------------------------|
b|--------------------------------------------------|
g|--------------------------------------------------|
d|---7-----7-----7-----7-----7-----7-----7-----7----|
a|7--5--7--5--7--5--7--5--7--5--7--5--7--5--7--5--7-|
e|5-----5-----5-----5-----5-----5-----5-----5-----5-|

riff 5
e|-------------------------------------------------------------------------------------|
b|-------------------------------------------------------------------------------------|
g|-------------------------------------------------------------------------------------|
d|7--7-7-7-7--7-7-7-7--7-7-7-7-7-7-7-7-7-----------------------------------------------|
a|5--5-5-5-5--5-5-5-5--5-5-5-5-5-5-5-5-5--7--7-7-7-7--7-7-7-7-5-5-5-5-5-5-5-5-5-5-5-5--|
e|----------------------------------------5--5-5-5-5--5-5-5-5-3-3-3-3-3-3-3-3-3-3-3-3--|
Comments