Green Day - Holiday (real Version) Chords & Tabs

 

Holiday (real Version) Chords & Tabs

Green Day Chords & Tabs

Version: 1 Type: Bass Tab 2 ratings
1 star 2 stars 3 stars 4 stars 5 stars
comments

Holiday (real Version) Bass Tab

Title: "Holiday"
Artist: Green Day
Album: American Idiot

INTRO (Enter right after the guitar introduces the melody)
(==============================================2x's===============================================)
G|------------------------------------------------------------------------------------------------|
D|------------------------------------------------------------------------------------------------|
A|---------8--8--4--4-------6--6-6----------------------------------------------------------------|
E|---------------------4--4-----------------------------------------------------------------------|

VERSE I
G|------------------------------------------------------------------------------------------------|
D|------------------------------------------------------------------------------------------------|
A|---------8--8--4--4-------6--6-6----------------------------------------------------------------|
E|---------------------4--4-----------------------------------------------------------------------|

G|------------------------------------------------------------------------------------------------|
D|------------------------------------------------------------------------------------------------|
A|---------8--8--4--4-------3--3-3-3--------------------------------------------------------------|
E|---------------------4--4-----------------------------------------------------------------------|

G|------------------------------------------------------------------------------------------------|
D|------------------------------------------------------------------------------------------------|
A|---------8--8--4--4-------6--6-6----------------------------------------------------------------|
E|---------------------4--4-----------------------------------------------------------------------|

G|------------------------------------------------------------------------------------------------|
D|------------------------------------------------------------------------------------------------|
A|---------8--8--4--4-------6--6--3--3--3--3-3-3--3--3-3-3-3-3-3----------------------------------|
E|---------------------4--4-----------------------------------------------------------------------|

CHORUS I
G|------------------------------------------------------------------------------------------------|
D|------------------------------------------------------------------------------------------------|
A|-----------------4-4--4--4-4--------------6--6--6--6-6------------------------------------------|
E|----1--1--1--1-1-------------4--4--4--4-4--------------0/1--------------------------------------|

G|------------------------------------------------------------------------------------------------|
D|------------------------------------------------------------------------------------------------|
A|----------------4-4--4--4-4--------------3--3--3--3-3-------------------------------------------|
E|------1--1--1-1-------------4--4--4--4-4--------------0/1---------------------------------------|

G|------------------------------------------------------------------------------------------------|
D|------------------------------------------------------------------------------------------------|
A|----------------4-4--4--4-4--------------6--6--6--6-6-------------------------------------------|
E|------1--1--1-1-------------4--4--4--4-4--------------0/1---------------------------------------|

G|------------------------------------------------------------------------------------------------|
D|------------------------------------------------------------------------------------------------|
A|----------------4-4--4--4-4--------------3--3--3--3--3------------------------------------------|
E|------1--1--1-1-------------4--4--4--4-4--------------------------------------------------------|

VERSE II (Again, enter after the guitar and after Tre's snare part)
G|------------------------------------------------------------------------------------------------|
D|------------------------------------------------------------------------------------------------|
A|---------8--8--4--4-------6--6-6----------------------------------------------------------------|
E|---------------------4--4-----------------------------------------------------------------------|

G|------------------------------------------------------------------------------------------------|
D|------------------------------------------------------------------------------------------------|
A|---------8--8--4--4-------3--3-3-3--------------------------------------------------------------|
E|---------------------4--4-----------------------------------------------------------------------|

G|------------------------------------------------------------------------------------------------|
D|------------------------------------------------------------------------------------------------|
A|---------8--8--4--4-------6--6-6----------------------------------------------------------------|
E|---------------------4--4-----------------------------------------------------------------------|

G|------------------------------------------------------------------------------------------------|
D|------------------------------------------------------------------------------------------------|
A|---------8--8--4--4-------6--6--3--3--3--3-3-3--3--3-3-3-3-3-3----------------------------------|
E|---------------------4--4-----------------------------------------------------------------------|

CHORUS I
G|------------------------------------------------------------------------------------------------|
D|------------------------------------------------------------------------------------------------|
A|-----------------4-4--4--4-4--------------6--6--6--6-6------------------------------------------|
E|----1--1--1--1-1-------------4--4--4--4-4--------------0/1--------------------------------------|

G|------------------------------------------------------------------------------------------------|
D|------------------------------------------------------------------------------------------------|
A|----------------4-4--4--4-4--------------3--3--3--3-3-------------------------------------------|
E|------1--1--1-1-------------4--4--4--4-4--------------0/1---------------------------------------|
[ Tab from: http://www.guitartabs.cc/tabs/g/green_day/holiday_real_version_btab.html ]
G|------------------------------------------------------------------------------------------------|
D|------------------------------------------------------------------------------------------------|
A|----------------4-4--4--4-4--------------6--6--6--6-6-------------------------------------------|
E|------1--1--1-1-------------4--4--4--4-4--------------0/1---------------------------------------|

G|------------------------------------------------------------------------------------------------|
D|------------------------------------------------------------------------------------------------|
A|----------------4-4--4--4-4--------------3--3--3--3--3------------------------------------------|
E|------1--1--1-1-------------4--4--4--4-4--------------------------------------------------------|

BRIDGE (Slide down from the 8th fret down to the 1st fret on the E string)
(==============================================2x's===============================================)
G|------------------------------------------------------------------------------------------------|
D|------------------------------------------------------------------------------------------------|
A|----------------4---6-3----------------6---8-(slide down to 1 on E string)----------------------|
E|-1--1--3-4--4-4---6-----1--1--3-4--4-4---8------------------------------------------------------|
***(where it says "slide down to 1 on E string", it means slide down to 1 on A string and drop to 
E quickly after reaching 1)***

(Guitar solo)
G|------------------------------------------------------------------------------------------------|
D|------------------------------------------------------------------------------------------------|
A|----4--4--4--4-4-----------------3--3--3--3-3--8--8--6--6---------------------------------------|
E|------------------4-4--4--4-4-------------------------------------------------------------------|

G|------------------------------------------------------------------------------------------------|
D|------------------------------------------------------------------------------------------------|
A|----4--4--4--4-4-----------------3--3--3--3-3--3--3--3--3-3--3--3--3--3-3--3--3--3--3-----------|
E|------------------4-4--4--4-4-------------------------------------------------------------------|

(Slide down from the 8th fret down to the 1st fret on the E string)***Bass Solo***
(==============================================5x's===============================================)
G|------------------------------------------------------------------------------------------------|
D|------------------------------------------------------------------------------------------------|
A|----------------4---6-3----------------6---8-(slide down to 1 on E string)----------------------|
E|-1--1--3-4--4-4---6-----1--1--3-4--4-4---8------------------------------------------------------|

G|------------------------------------------------------------------------------------------------|
D|------------------------------------------------------------------------------------------------|
A|--------------------------4---6-3----------------6---8------------------------------------------|
E|-----------1--1--3-4--4-4---6-----1--1--3-4--4-4---8--------------------------------------------|

G|------------------------------------------------------------------------------------------------|
D|------------------------------------------------------------------------------------------------|
A|-------------3--3--3--3-3--3--3--3--3-3--3--3--3--3-3--3--3--3--3-------------------------------|
E|------------------------------------------------------------------------------------------------|

CHORUS II
G|------------------------------------------------------------------------------------------------|
D|------------------------------------------------------------------------------------------------|
A|-----------------4-4--4--4-4--------------6--6--6--6-6------------------------------------------|
E|----1--1--1--1-1-------------4--4--4--4-4--------------0/1--------------------------------------|

G|------------------------------------------------------------------------------------------------|
D|------------------------------------------------------------------------------------------------|
A|----------------4-4--4--4-4--------------3--3--3--3-3-------------------------------------------|
E|------1--1--1-1-------------4--4--4--4-4--------------0/1---------------------------------------|

G|------------------------------------------------------------------------------------------------|
D|------------------------------------------------------------------------------------------------|
A|----------------4-4--4--4-4--------------6--6--6--6-6-------------------------------------------|
E|------1--1--1-1-------------4--4--4--4-4--------------0/1---------------------------------------|

G|------------------------------------------------------------------------------------------------|
D|------------------------------------------------------------------------------------------------|
A|----------------4-4--4--4-4--------------3--3--3--3-3--3--3--3--3-3--3--3--3--3-3--3--3--3--3---|
E|------1--1--1-1-------------4--4--4--4-4--------------------------------------------------------|

OUTRO
G|------------------------------------------------------------------------------------------------|
D|------------------------------------------------------------------------------------------------|
A|---------8--8--4--4-------6--6-6----------------------------------------------------------------|
E|---------------------4--4-----------------------------------------------------------------------|

G|------------------------------------------------------------------------------------------------|
D|------------------------------------------------------------------------------------------------|
A|---------8--8--4--4-------3--3-3-3--------------------------------------------------------------|
E|---------------------4--4-----------------------------------------------------------------------|

G|------------------------------------------------------------------------------------------------|
D|------------------------------------------------------------------------------------------------|
A|---------8--8--4--4-------6--6-6----------------------------------------------------------------|
E|---------------------4--4-----------------------------------------------------------------------|

G|------------------------------------------------------------------------------------------------|
D|------------------------------------------------------------------------------------------------|
A|---------8--8--4--4--6--3--8--------------------------------------------------------------------|
E|------------------------------1-----------------------------------------------------------------|

GREEN DAY ROCKS!!!!!!!!
Comments