Green Day - Holiday Chords & Tabs

 

Holiday Chords & Tabs

Green Day Chords & Tabs

Version: 7 Type: Bass Tab 0 ratings
1 star 2 stars 3 stars 4 stars 5 stars
comments

Holiday Bass Tab

Green Day Holiday bass tab
From the album American Idiot
Track 3
Tabbed by Liam 
Email: guitar_rocker_47@hotmail.com 
Tuning standard

Come in after the guitar intro

Main Riff
G|---------------------------------|---------------------------------|
D|---------------------------------|---------------------------------|
A|--8--8--8--4-4-4---------6-6-6-6-|--8--8--8--4-4-4---------6-6-6-6-|
E|------------------4-4-4----------|------------------4-4-4----------|

Verse
G|---------------------------------|---------------------------------|
D|---------------------------------|---------------------------------|
A|--8--8--8--4-4-4---------6-6-6-6-|--8--8--8--4-4-4---------3-3-3-3-|
E|------------------4-4-4----------|------------------4-4-4----------|

G|-------------------------------------------------------------------|
D|-------------------------------------------------------------------|
A|--8--8--8--4-4-4---------6-6-6-6--3-3-3-3-3-3-3-3-3----------------|
E|------------------4-4-4--------------------------------------------|

Chorus
G|--------------------------------------------------------------------------------|
D|--------------------------------------------------------------------------------|
A|---------4-4-4-4----------6-6-6-6-6-6-----------4-4-4-4----------3-3-3-3-3-3-3-3|
E|1-1-1-1----------4-4-4-4---------------1-1-1-1----------4-4-4-4-----------------|

Bridge                              ('hey')
G|-------------------|-------------------|-------------------|-------------------|
D|-------------------|-------------------|-------------------|-------------------|
A|----------4--1-6-3-|----------4--1-6-5-|----------4--1-6-3-|----------4--1-6-5-|
E|-1-1--4-4----------|-1-1--4-4----------|-1-1--4-4----------|-1-1--4-4----------|
[ Tab from: http://www.guitartabs.cc/tabs/g/green_day/holiday_btab_ver_7.html ]
Solo (play this while guitar plays a note solo)
G|---------|----------|--------|-----------|---------|----------|-----------------|
D|---------|----------|--------|-----------|---------|----------|-----------------|
A|-4-4-4-4-|----------|-3-3-3-3|-8-8-8-8-8-|-4-4-4-4-|----------|-3-3-3-3-3-3-3-3-|
E|---------|-4-4-4-4-4|--------|-----------|---------|-4-4-4-4-4|-----------------|

G|-----------------|-----------------|----------------|
D|-----------------|-----------------|----------------|
A|-3-3-3-3-3-3-3-3-|-3-3-3-3-3-3-3-3-|-3-3-3-3-3-3-3--|
E|-----------------|-----------------|----------------|

Interlude 
G|-------------------|-------------------|
D|-------------------|-------------------|
A|----------4--1-6-3-|----------4--1-6-5-|
E|-1-1--4-4----------|-1-1--4-4----------|

Chorus 2
G|-------------------------------------------------------------------------|
D|-------------------------------------------------------------------------|
A|---------4-4-4-4----------6-6-6-6-6-6-----------4-4-4-4----------3-3-3-3-|
E|1-1-1-1----------4-4-4-4---------------1-1-1-1----------4-4-4-4----------|

G|--------------------------------------------------------------------------------|
D|--------------------------------------------------------------------------------|
A|---------4-4-4-4----------6-6-6-6-6-6-----------4-4-4-4----------3-3-3-3-3-3-3-3|
E|1-1-1-1----------4-4-4-4---------------1-1-1-1----------4-4-4-4-----------------|

G|--------------------------------------------------------------------------------|
D|--------------------------------------------------------------------------------|
A|-3-3-3-3-3-3-3-3--3-3-3-3-3-3-3-3--3-3-3-3-3-3-3-3------------------------------|
E|--------------------------------------------------------------------------------|

End
G|------------------------------------|
D|------------------------------------|
A|--8-8-8--4-4-4--6-----8-------------|
E|-------------------8-----1~~--------|

Order

Intro
Main riff
Verse x2
Chorus
Intro
Verse x2
Chorus
Bridge 
Solo
Interlude x6
Chorus 2
Main riff (one and a half times)
End
Comments